ISO-10303-21;
HEADER;
FILE_DESCRIPTION(
  ('This file contains a STEP AP42 implementation'
    ,'as created by ZW3D STEP Interface translator.')
  ,'2;1'
  );
FILE_NAME(
  'D-RST2.5¶Ë°åÄ£ÐÍ.stp'
  ,'23 4 7. 845 1',
  (''),
  ('ZWCAD Software Co.'),
  'Version 1.0',
  'ZW3D to STEP translator',
  ''
  );
FILE_SCHEMA(('AUTOMOTIVE_DESIGN { 1 0 10303 214 1 1 1 1 }'));
ENDSEC;

DATA;

/**File Base Unit**/
#1 = (LENGTH_UNIT()NAMED_UNIT(*)SI_UNIT(.MILLI.,.METRE.));
#2 = (NAMED_UNIT(*)PLANE_ANGLE_UNIT()SI_UNIT($,.RADIAN.));
#3 = (NAMED_UNIT(*)SI_UNIT($,.STERADIAN.)SOLID_ANGLE_UNIT());
#4 = UNCERTAINTY_MEASURE_WITH_UNIT(LENGTH_MEASURE(0.01),#1,'DISTANCE_ACCURACY_VALUE','Maximum Tolerance applied to model');
#5 = (GEOMETRIC_REPRESENTATION_CONTEXT(3)GLOBAL_UNCERTAINTY_ASSIGNED_CONTEXT((#4))GLOBAL_UNIT_ASSIGNED_CONTEXT((#1,#2,#3))REPRESENTATION_CONTEXT('STEP 203','TOP_LEVEL_ASSEMBLY_PART'));

/**product_definition_shape**/
#6=APPLICATION_CONTEXT('mechanical parts and assemblies' );
#7=DESIGN_CONTEXT('NONE',#6,'design');
#8=MECHANICAL_CONTEXT('NONE',#6,'mechanical');
#9=PRODUCT('0','Part','',(#8));
#10=PRODUCT_DEFINITION_FORMATION_WITH_SPECIFIED_SOURCE('ANY','',#9,.NOT_KNOWN.);
#11=PRODUCT_DEFINITION('UNKNOWN','',#10,#7);
#12=PRODUCT_DEFINITION_SHAPE('NONE','NONE',#11);
#13=PRODUCT_RELATED_PRODUCT_CATEGORY('detail','',(#9));
/**geometry information**/
#14=CARTESIAN_POINT('',(0.,0.,0.));
#15=DIRECTION('',(0.,0.,1.));
#16=DIRECTION('',(1.,0.,0.));
#17=AXIS2_PLACEMENT_3D('',#14,#15,#16);
#18=APPLICATION_CONTEXT('part');
#19=MECHANICAL_CONTEXT('none',#18,'component');
#20=PRODUCT('D-RST2.5¶Ë°åÄ£ÐÍ','D-RST2.5¶Ë°åÄ£ÐÍ','',(#19));
#21=PRODUCT_RELATED_PRODUCT_CATEGORY('detail','',(#20));
#22=PRODUCT_DEFINITION_FORMATION_WITH_SPECIFIED_SOURCE('ANY','UNSPECIFIED',#20,.NOT_KNOWN.);
#23=APPLICATION_CONTEXT('part');
#24=APPLICATION_PROTOCOL_DEFINITION('international standard','config_control_design',1994,#23);
#25=DESIGN_CONTEXT('detailed',#23,'design');
#26=PRODUCT_DEFINITION('','UNSPECIFIED',#22,#25);
#27=PRODUCT_DEFINITION_SHAPE('NONE','NONE',#26);
#28=SHAPE_REPRESENTATION('D-RST2.5¶Ë°åÄ£ÐÍ',(#17),#5);
#29=SHAPE_DEFINITION_REPRESENTATION(#27,#28);
#30=CARTESIAN_POINT('',(0.,0.,26.5));
#31=DIRECTION('',(0.,1.,0.));
#32=DIRECTION('',(1.,0.,0.));
#33=AXIS2_PLACEMENT_3D('',#30,#32,#31);
#34=PLANE('',#33);
#35=CARTESIAN_POINT('',(0.,-26.5,0.));
#36=VERTEX_POINT('',#35);
#37=CARTESIAN_POINT('',(0.,26.5,0.));
#38=VERTEX_POINT('',#37);
#39=CARTESIAN_POINT('',(0.,-26.5,0.));
#40=DIRECTION('',(0.,1.,0.));
#41=VECTOR('',#40,53.);
#42=LINE('',#39,#41);
#43=EDGE_CURVE('',#36,#38,#42,.T.);
#44=ORIENTED_EDGE('E1',*,*,#43,.T.);
#45=CARTESIAN_POINT('',(0.,26.5,19.5));
#46=VERTEX_POINT('',#45);
#47=CARTESIAN_POINT('',(0.,26.5,0.));
#48=DIRECTION('',(0.,0.,1.));
#49=VECTOR('',#48,19.5);
#50=LINE('',#47,#49);
#51=EDGE_CURVE('',#38,#46,#50,.T.);
#52=ORIENTED_EDGE('E2',*,*,#51,.T.);
#53=CARTESIAN_POINT('',(0.,22.999999999999,27.));
#54=VERTEX_POINT('',#53);
#55=CARTESIAN_POINT('',(0.,26.5,19.5));
#56=DIRECTION('',(0.,-0.42288546533112,0.90618313999527));
#57=VECTOR('',#56,8.2764726786234);
#58=LINE('',#55,#57);
#59=EDGE_CURVE('',#46,#54,#58,.T.);
#60=ORIENTED_EDGE('E3',*,*,#59,.T.);
#61=CARTESIAN_POINT('',(0.,-23.,27.));
#62=VERTEX_POINT('',#61);
#63=CARTESIAN_POINT('',(0.,22.999999999999,27.));
#64=DIRECTION('',(0.,-1.,0.));
#65=VECTOR('',#64,45.999999999999);
#66=LINE('',#63,#65);
#67=EDGE_CURVE('',#54,#62,#66,.T.);
#68=ORIENTED_EDGE('E4',*,*,#67,.T.);
#69=CARTESIAN_POINT('',(0.,-26.5,19.5));
#70=VERTEX_POINT('',#69);
#71=CARTESIAN_POINT('',(0.,-23.,27.));
#72=DIRECTION('',(0.,-0.42288546533112,-0.90618313999527));
#73=VECTOR('',#72,8.2764726786234);
#74=LINE('',#71,#73);
#75=EDGE_CURVE('',#62,#70,#74,.T.);
#76=ORIENTED_EDGE('E5',*,*,#75,.T.);
#77=CARTESIAN_POINT('',(0.,-26.5,19.5));
#78=DIRECTION('',(0.,0.,-1.));
#79=VECTOR('',#78,19.5);
#80=LINE('',#77,#79);
#81=EDGE_CURVE('',#70,#36,#80,.T.);
#82=ORIENTED_EDGE('E6',*,*,#81,.T.);
#83=EDGE_LOOP('',(#44,#52,#60,#68,#76,#82));
#84=FACE_OUTER_BOUND('',#83,.T.);
#85=ADVANCED_FACE('F1',(#84),#34,.T.);
#86=CARTESIAN_POINT('',(-2.2,0.,26.5));
#87=DIRECTION('',(0.,1.,0.));
#88=DIRECTION('',(1.,0.,0.));
#89=AXIS2_PLACEMENT_3D('',#86,#88,#87);
#90=PLANE('',#89);
#91=CARTESIAN_POINT('',(-2.2,-26.5,0.));
#92=VERTEX_POINT('',#91);
#93=CARTESIAN_POINT('',(-2.2,26.5,0.));
#94=VERTEX_POINT('',#93);
#95=CARTESIAN_POINT('',(-2.2,-26.5,0.));
#96=DIRECTION('',(0.,1.,0.));
#97=VECTOR('',#96,53.);
#98=LINE('',#95,#97);
#99=EDGE_CURVE('',#92,#94,#98,.T.);
#100=ORIENTED_EDGE('E7',*,*,#99,.T.);
#101=CARTESIAN_POINT('',(-2.2,26.5,19.5));
#102=VERTEX_POINT('',#101);
#103=CARTESIAN_POINT('',(-2.2,26.5,0.));
#104=DIRECTION('',(0.,0.,1.));
#105=VECTOR('',#104,19.5);
#106=LINE('',#103,#105);
#107=EDGE_CURVE('',#94,#102,#106,.T.);
#108=ORIENTED_EDGE('E8',*,*,#107,.T.);
#109=CARTESIAN_POINT('',(-2.2,22.999999999999,27.));
#110=VERTEX_POINT('',#109);
#111=CARTESIAN_POINT('',(-2.2,26.5,19.5));
#112=DIRECTION('',(0.,-0.42288546533112,0.90618313999527));
#113=VECTOR('',#112,8.2764726786234);
#114=LINE('',#111,#113);
#115=EDGE_CURVE('',#102,#110,#114,.T.);
#116=ORIENTED_EDGE('E9',*,*,#115,.T.);
#117=CARTESIAN_POINT('',(-2.2,-23.,27.));
#118=VERTEX_POINT('',#117);
#119=CARTESIAN_POINT('',(-2.2,22.999999999999,27.));
#120=DIRECTION('',(0.,-1.,0.));
#121=VECTOR('',#120,45.999999999999);
#122=LINE('',#119,#121);
#123=EDGE_CURVE('',#110,#118,#122,.T.);
#124=ORIENTED_EDGE('E10',*,*,#123,.T.);
#125=CARTESIAN_POINT('',(-2.2,-26.5,19.5));
#126=VERTEX_POINT('',#125);
#127=CARTESIAN_POINT('',(-2.2,-23.,27.));
#128=DIRECTION('',(0.,-0.42288546533112,-0.90618313999527));
#129=VECTOR('',#128,8.2764726786234);
#130=LINE('',#127,#129);
#131=EDGE_CURVE('',#118,#126,#130,.T.);
#132=ORIENTED_EDGE('E11',*,*,#131,.T.);
#133=CARTESIAN_POINT('',(-2.2,-26.5,19.5));
#134=DIRECTION('',(0.,0.,-1.));
#135=VECTOR('',#134,19.5);
#136=LINE('',#133,#135);
#137=EDGE_CURVE('',#126,#92,#136,.T.);
#138=ORIENTED_EDGE('E12',*,*,#137,.T.);
#139=EDGE_LOOP('',(#100,#108,#116,#124,#132,#138));
#140=FACE_OUTER_BOUND('',#139,.F.);
#141=ADVANCED_FACE('F2',(#140),#90,.F.);
#142=CARTESIAN_POINT('',(-1.1,0.,0.));
#143=DIRECTION('',(0.,1.,0.));
#144=DIRECTION('',(0.,-0.,1.));
#145=AXIS2_PLACEMENT_3D('',#142,#144,#143);
#146=PLANE('',#145);
#147=ORIENTED_EDGE('',*,*,#43,.T.);
#148=CARTESIAN_POINT('',(0.,26.5,0.));
#149=DIRECTION('',(-1.,0.,0.));
#150=VECTOR('',#149,2.2);
#151=LINE('',#148,#150);
#152=EDGE_CURVE('',#38,#94,#151,.T.);
#153=ORIENTED_EDGE('E13',*,*,#152,.T.);
#154=ORIENTED_EDGE('E13',*,*,#99,.F.);
#155=CARTESIAN_POINT('',(0.,-26.5,0.));
#156=DIRECTION('',(-1.,0.,0.));
#157=VECTOR('',#156,2.2);
#158=LINE('',#155,#157);
#159=EDGE_CURVE('',#36,#92,#158,.T.);
#160=ORIENTED_EDGE('E18',*,*,#159,.F.);
#161=EDGE_LOOP('',(#147,#153,#154,#160));
#162=FACE_OUTER_BOUND('',#161,.F.);
#163=ADVANCED_FACE('F3',(#162),#146,.F.);
#164=CARTESIAN_POINT('',(-1.1,26.5,9.7499999999998));
#165=DIRECTION('',(0.,0.,1.));
#166=DIRECTION('',(0.,-1.,0.));
#167=AXIS2_PLACEMENT_3D('',#164,#166,#165);
#168=PLANE('',#167);
#169=ORIENTED_EDGE('',*,*,#51,.T.);
#170=CARTESIAN_POINT('',(0.,26.5,19.5));
#171=DIRECTION('',(-1.,0.,0.));
#172=VECTOR('',#171,2.2);
#173=LINE('',#170,#172);
#174=EDGE_CURVE('',#46,#102,#173,.T.);
#175=ORIENTED_EDGE('E14',*,*,#174,.T.);
#176=ORIENTED_EDGE('E14',*,*,#107,.F.);
#177=ORIENTED_EDGE('E14',*,*,#152,.F.);
#178=EDGE_LOOP('',(#169,#175,#176,#177));
#179=FACE_OUTER_BOUND('',#178,.F.);
#180=ADVANCED_FACE('F4',(#179),#168,.F.);
#181=CARTESIAN_POINT('',(-1.1,24.75,23.25));
#182=DIRECTION('',(0.,-0.42288546533112,0.90618313999527));
#183=DIRECTION('',(-0.,-0.90618313999527,-0.42288546533112));
#184=AXIS2_PLACEMENT_3D('',#181,#183,#182);
#185=PLANE('',#184);
#186=ORIENTED_EDGE('',*,*,#59,.T.);
#187=CARTESIAN_POINT('',(0.,23.,27.));
#188=DIRECTION('',(-1.,0.,0.));
#189=VECTOR('',#188,2.2);
#190=LINE('',#187,#189);
#191=EDGE_CURVE('',#54,#110,#190,.T.);
#192=ORIENTED_EDGE('E15',*,*,#191,.T.);
#193=ORIENTED_EDGE('E15',*,*,#115,.F.);
#194=ORIENTED_EDGE('E15',*,*,#174,.F.);
#195=EDGE_LOOP('',(#186,#192,#193,#194));
#196=FACE_OUTER_BOUND('',#195,.F.);
#197=ADVANCED_FACE('F5',(#196),#185,.F.);
#198=CARTESIAN_POINT('',(-1.1,-4.5474735088646E-13,27.));
#199=DIRECTION('',(0.,-1.,0.));
#200=DIRECTION('',(-0.,-0.,-1.));
#201=AXIS2_PLACEMENT_3D('',#198,#200,#199);
#202=PLANE('',#201);
#203=ORIENTED_EDGE('',*,*,#67,.T.);
#204=CARTESIAN_POINT('',(0.,-23.,27.));
#205=DIRECTION('',(-1.,0.,0.));
#206=VECTOR('',#205,2.2);
#207=LINE('',#204,#206);
#208=EDGE_CURVE('',#62,#118,#207,.T.);
#209=ORIENTED_EDGE('E16',*,*,#208,.T.);
#210=ORIENTED_EDGE('E16',*,*,#123,.F.);
#211=ORIENTED_EDGE('E16',*,*,#191,.F.);
#212=EDGE_LOOP('',(#203,#209,#210,#211));
#213=FACE_OUTER_BOUND('',#212,.F.);
#214=ADVANCED_FACE('F6',(#213),#202,.F.);
#215=CARTESIAN_POINT('',(-1.1,-24.75,23.25));
#216=DIRECTION('',(0.,-0.42288546533112,-0.90618313999527));
#217=DIRECTION('',(0.,0.90618313999527,-0.42288546533112));
#218=AXIS2_PLACEMENT_3D('',#215,#217,#216);
#219=PLANE('',#218);
#220=ORIENTED_EDGE('',*,*,#75,.T.);
#221=CARTESIAN_POINT('',(0.,-26.5,19.5));
#222=DIRECTION('',(-1.,0.,0.));
#223=VECTOR('',#222,2.2);
#224=LINE('',#221,#223);
#225=EDGE_CURVE('',#70,#126,#224,.T.);
#226=ORIENTED_EDGE('E17',*,*,#225,.T.);
#227=ORIENTED_EDGE('E17',*,*,#131,.F.);
#228=ORIENTED_EDGE('E17',*,*,#208,.F.);
#229=EDGE_LOOP('',(#220,#226,#227,#228));
#230=FACE_OUTER_BOUND('',#229,.F.);
#231=ADVANCED_FACE('F7',(#230),#219,.F.);
#232=CARTESIAN_POINT('',(-1.1,-26.5,9.75));
#233=DIRECTION('',(0.,0.,-1.));
#234=DIRECTION('',(0.,1.,0.));
#235=AXIS2_PLACEMENT_3D('',#232,#234,#233);
#236=PLANE('',#235);
#237=ORIENTED_EDGE('',*,*,#81,.T.);
#238=ORIENTED_EDGE('',*,*,#159,.T.);
#239=ORIENTED_EDGE('',*,*,#137,.F.);
#240=ORIENTED_EDGE('',*,*,#225,.F.);
#241=EDGE_LOOP('',(#237,#238,#239,#240));
#242=FACE_OUTER_BOUND('',#241,.F.);
#243=ADVANCED_FACE('F8',(#242),#236,.F.);
#244=CLOSED_SHELL('',(#85,#141,#163,#180,#197,#214,#231,#243));
#245=COLOUR_RGB('',0.745098,0.901961,0.960784);
#246=FILL_AREA_STYLE_COLOUR('',#245);
#247=FILL_AREA_STYLE('',(#246));
#248=SURFACE_STYLE_FILL_AREA(#247);
#249=SURFACE_SIDE_STYLE('',(#248));
#250=SURFACE_STYLE_USAGE(.BOTH.,#249);
#251=PRESENTATION_STYLE_ASSIGNMENT((#250));
#252=OVER_RIDING_STYLED_ITEM('',(#251),#85,#244);
#253=OVER_RIDING_STYLED_ITEM('',(#251),#141,#244);
#254=OVER_RIDING_STYLED_ITEM('',(#251),#163,#244);
#255=OVER_RIDING_STYLED_ITEM('',(#251),#180,#244);
#256=OVER_RIDING_STYLED_ITEM('',(#251),#197,#244);
#257=OVER_RIDING_STYLED_ITEM('',(#251),#214,#244);
#258=OVER_RIDING_STYLED_ITEM('',(#251),#231,#244);
#259=OVER_RIDING_STYLED_ITEM('',(#251),#243,#244);
#260=MANIFOLD_SOLID_BREP('S1',#244);
#261=ADVANCED_BREP_SHAPE_REPRESENTATION('',(#260),#5);
#262=SHAPE_REPRESENTATION_RELATIONSHIP('NONE', 'NONE', #28, #261);
#263=PRESENTATION_LAYER_ASSIGNMENT('Í¼²ã0000','',(#260));
#264=MECHANICAL_DESIGN_GEOMETRIC_PRESENTATION_REPRESENTATION('',(#252,#253,#254,#255,#256,#257,#258,#259),#5);
ENDSEC;
END-ISO-10303-21;
