ISO-10303-21;
HEADER;
FILE_DESCRIPTION(
  ('This file contains a STEP AP42 implementation'
    ,'as created by ZW3D STEP Interface translator.')
  ,'2;1'
  );
FILE_NAME(
  'D-RST4¶Ë°åÄ£ÐÍ.stp'
  ,'23 4 7. 85919',
  (''),
  ('ZWCAD Software Co.'),
  'Version 1.0',
  'ZW3D to STEP translator',
  ''
  );
FILE_SCHEMA(('AUTOMOTIVE_DESIGN { 1 0 10303 214 1 1 1 1 }'));
ENDSEC;

DATA;

/**File Base Unit**/
#1 = (LENGTH_UNIT()NAMED_UNIT(*)SI_UNIT(.MILLI.,.METRE.));
#2 = (NAMED_UNIT(*)PLANE_ANGLE_UNIT()SI_UNIT($,.RADIAN.));
#3 = (NAMED_UNIT(*)SI_UNIT($,.STERADIAN.)SOLID_ANGLE_UNIT());
#4 = UNCERTAINTY_MEASURE_WITH_UNIT(LENGTH_MEASURE(0.01),#1,'DISTANCE_ACCURACY_VALUE','Maximum Tolerance applied to model');
#5 = (GEOMETRIC_REPRESENTATION_CONTEXT(3)GLOBAL_UNCERTAINTY_ASSIGNED_CONTEXT((#4))GLOBAL_UNIT_ASSIGNED_CONTEXT((#1,#2,#3))REPRESENTATION_CONTEXT('STEP 203','TOP_LEVEL_ASSEMBLY_PART'));

/**product_definition_shape**/
#6=APPLICATION_CONTEXT('mechanical parts and assemblies' );
#7=DESIGN_CONTEXT('NONE',#6,'design');
#8=MECHANICAL_CONTEXT('NONE',#6,'mechanical');
#9=PRODUCT('0','Part','',(#8));
#10=PRODUCT_DEFINITION_FORMATION_WITH_SPECIFIED_SOURCE('ANY','',#9,.NOT_KNOWN.);
#11=PRODUCT_DEFINITION('UNKNOWN','',#10,#7);
#12=PRODUCT_DEFINITION_SHAPE('NONE','NONE',#11);
#13=PRODUCT_RELATED_PRODUCT_CATEGORY('detail','',(#9));
/**geometry information**/
#14=CARTESIAN_POINT('',(0.,0.,0.));
#15=DIRECTION('',(0.,0.,1.));
#16=DIRECTION('',(1.,0.,0.));
#17=AXIS2_PLACEMENT_3D('',#14,#15,#16);
#18=APPLICATION_CONTEXT('part');
#19=MECHANICAL_CONTEXT('none',#18,'component');
#20=PRODUCT('D-RST4¶Ë°åÄ£ÐÍ','D-RST4¶Ë°åÄ£ÐÍ','',(#19));
#21=PRODUCT_RELATED_PRODUCT_CATEGORY('detail','',(#20));
#22=PRODUCT_DEFINITION_FORMATION_WITH_SPECIFIED_SOURCE('ANY','UNSPECIFIED',#20,.NOT_KNOWN.);
#23=APPLICATION_CONTEXT('part');
#24=APPLICATION_PROTOCOL_DEFINITION('international standard','config_control_design',1994,#23);
#25=DESIGN_CONTEXT('detailed',#23,'design');
#26=PRODUCT_DEFINITION('','UNSPECIFIED',#22,#25);
#27=PRODUCT_DEFINITION_SHAPE('NONE','NONE',#26);
#28=SHAPE_REPRESENTATION('D-RST4¶Ë°åÄ£ÐÍ',(#17),#5);
#29=SHAPE_DEFINITION_REPRESENTATION(#27,#28);
#30=CARTESIAN_POINT('',(0.,2.2737367544323E-13,29.8));
#31=DIRECTION('',(0.,1.,0.));
#32=DIRECTION('',(1.,0.,0.));
#33=AXIS2_PLACEMENT_3D('',#30,#32,#31);
#34=PLANE('',#33);
#35=CARTESIAN_POINT('',(0.,25.123713525468,28.));
#36=VERTEX_POINT('',#35);
#37=CARTESIAN_POINT('',(0.,-25.123713525469,28.));
#38=VERTEX_POINT('',#37);
#39=CARTESIAN_POINT('',(0.,25.123713525468,28.));
#40=DIRECTION('',(0.,-1.,-9.0501619202407E-15));
#41=VECTOR('',#40,50.247427050937);
#42=LINE('',#39,#41);
#43=EDGE_CURVE('',#36,#38,#42,.T.);
#44=ORIENTED_EDGE('E1',*,*,#43,.T.);
#45=CARTESIAN_POINT('',(0.,-25.547031800074,27.766085772609));
#46=VERTEX_POINT('',#45);
#47=CARTESIAN_POINT('',(0.,-25.123713525469,27.5));
#48=DIRECTION('',(0.,0.,1.));
#49=DIRECTION('',(1.,0.,0.));
#50=AXIS2_PLACEMENT_3D('',#47,#49,#48);
#51=CIRCLE('',#50,0.5);
#52=EDGE_CURVE('',#38,#46,#51,.T.);
#53=ORIENTED_EDGE('E2',*,*,#52,.T.);
#54=CARTESIAN_POINT('',(0.,-29.723318274605,21.121993654037));
#55=VERTEX_POINT('',#54);
#56=CARTESIAN_POINT('',(0.,-25.547031800074,27.766085772609));
#57=DIRECTION('',(0.,-0.53217154521833,-0.84663654921102));
#58=VECTOR('',#57,7.8476320503338);
#59=LINE('',#56,#58);
#60=EDGE_CURVE('',#46,#55,#59,.T.);
#61=ORIENTED_EDGE('E3',*,*,#60,.T.);
#62=CARTESIAN_POINT('',(0.,-29.8,20.855907881428));
#63=VERTEX_POINT('',#62);
#64=CARTESIAN_POINT('',(0.,-29.3,20.855907881428));
#65=DIRECTION('',(0.,-0.8466365492109,0.53217154521851));
#66=DIRECTION('',(1.,0.,0.));
#67=AXIS2_PLACEMENT_3D('',#64,#66,#65);
#68=CIRCLE('',#67,0.50000000000001);
#69=EDGE_CURVE('',#55,#63,#68,.T.);
#70=ORIENTED_EDGE('E4',*,*,#69,.T.);
#71=CARTESIAN_POINT('',(0.,-29.8,0.));
#72=VERTEX_POINT('',#71);
#73=CARTESIAN_POINT('',(0.,-29.8,20.855907881428));
#74=DIRECTION('',(0.,0.,-1.));
#75=VECTOR('',#74,20.855907881428);
#76=LINE('',#73,#75);
#77=EDGE_CURVE('',#63,#72,#76,.T.);
#78=ORIENTED_EDGE('E5',*,*,#77,.T.);
#79=CARTESIAN_POINT('',(0.,29.8,0.));
#80=VERTEX_POINT('',#79);
#81=CARTESIAN_POINT('',(0.,-29.8,0.));
#82=DIRECTION('',(0.,1.,0.));
#83=VECTOR('',#82,59.599999999999);
#84=LINE('',#81,#83);
#85=EDGE_CURVE('',#72,#80,#84,.T.);
#86=ORIENTED_EDGE('E6',*,*,#85,.T.);
#87=CARTESIAN_POINT('',(0.,29.8,20.855907881427));
#88=VERTEX_POINT('',#87);
#89=CARTESIAN_POINT('',(0.,29.8,0.));
#90=DIRECTION('',(0.,2.1804246234298E-14,1.));
#91=VECTOR('',#90,20.855907881427);
#92=LINE('',#89,#91);
#93=EDGE_CURVE('',#80,#88,#92,.T.);
#94=ORIENTED_EDGE('E7',*,*,#93,.T.);
#95=CARTESIAN_POINT('',(0.,29.723318274605,21.121993654036));
#96=VERTEX_POINT('',#95);
#97=CARTESIAN_POINT('',(0.,29.3,20.855907881427));
#98=DIRECTION('',(0.,1.,7.1054273576009E-15));
#99=DIRECTION('',(1.,0.,0.));
#100=AXIS2_PLACEMENT_3D('',#97,#99,#98);
#101=CIRCLE('',#100,0.50000000000001);
#102=EDGE_CURVE('',#88,#96,#101,.T.);
#103=ORIENTED_EDGE('E8',*,*,#102,.T.);
#104=CARTESIAN_POINT('',(0.,25.547031800074,27.76608577261));
#105=VERTEX_POINT('',#104);
#106=CARTESIAN_POINT('',(0.,29.723318274605,21.121993654036));
#107=DIRECTION('',(0.,-0.5321715452183,0.84663654921103));
#108=VECTOR('',#107,7.847632050335);
#109=LINE('',#106,#108);
#110=EDGE_CURVE('',#96,#105,#109,.T.);
#111=ORIENTED_EDGE('E9',*,*,#110,.T.);
#112=CARTESIAN_POINT('',(0.,25.123713525468,27.5));
#113=DIRECTION('',(0.,0.8466365492109,0.53217154521851));
#114=DIRECTION('',(1.,0.,0.));
#115=AXIS2_PLACEMENT_3D('',#112,#114,#113);
#116=CIRCLE('',#115,0.5);
#117=EDGE_CURVE('',#105,#36,#116,.T.);
#118=ORIENTED_EDGE('E10',*,*,#117,.T.);
#119=EDGE_LOOP('',(#44,#53,#61,#70,#78,#86,#94,#103,#111,#118));
#120=FACE_OUTER_BOUND('',#119,.T.);
#121=ADVANCED_FACE('F1',(#120),#34,.T.);
#122=CARTESIAN_POINT('',(-2.2,2.2737367544323E-13,29.8));
#123=DIRECTION('',(0.,1.,0.));
#124=DIRECTION('',(1.,0.,0.));
#125=AXIS2_PLACEMENT_3D('',#122,#124,#123);
#126=PLANE('',#125);
#127=CARTESIAN_POINT('',(-2.2,25.123713525468,28.));
#128=VERTEX_POINT('',#127);
#129=CARTESIAN_POINT('',(-2.2,-25.123713525469,28.));
#130=VERTEX_POINT('',#129);
#131=CARTESIAN_POINT('',(-2.2,25.123713525468,28.));
#132=DIRECTION('',(0.,-1.,-9.0501619202407E-15));
#133=VECTOR('',#132,50.247427050937);
#134=LINE('',#131,#133);
#135=EDGE_CURVE('',#128,#130,#134,.T.);
#136=ORIENTED_EDGE('E11',*,*,#135,.T.);
#137=CARTESIAN_POINT('',(-2.2,-25.547031800074,27.766085772609));
#138=VERTEX_POINT('',#137);
#139=CARTESIAN_POINT('',(-2.2,-25.123713525469,27.5));
#140=DIRECTION('',(8.8817841970013E-16,0.,1.));
#141=DIRECTION('',(1.,2.1523562714974E-16,-3.8951531651151E-16));
#142=AXIS2_PLACEMENT_3D('',#139,#141,#140);
#143=CIRCLE('',#142,0.5);
#144=EDGE_CURVE('',#130,#138,#143,.T.);
#145=ORIENTED_EDGE('E12',*,*,#144,.T.);
#146=CARTESIAN_POINT('',(-2.2,-29.723318274605,21.121993654037));
#147=VERTEX_POINT('',#146);
#148=CARTESIAN_POINT('',(-2.2,-25.547031800074,27.766085772609));
#149=DIRECTION('',(0.,-0.53217154521833,-0.84663654921102));
#150=VECTOR('',#149,7.8476320503338);
#151=LINE('',#148,#150);
#152=EDGE_CURVE('',#138,#147,#151,.T.);
#153=ORIENTED_EDGE('E13',*,*,#152,.T.);
#154=CARTESIAN_POINT('',(-2.2,-29.8,20.855907881428));
#155=VERTEX_POINT('',#154);
#156=CARTESIAN_POINT('',(-2.2,-29.3,20.855907881428));
#157=DIRECTION('',(8.881784197001E-16,-0.8466365492109,0.53217154521851));
#158=DIRECTION('',(1.,1.0230092705333E-15,-2.9481514622095E-16));
#159=AXIS2_PLACEMENT_3D('',#156,#158,#157);
#160=CIRCLE('',#159,0.50000000000001);
#161=EDGE_CURVE('',#147,#155,#160,.T.);
#162=ORIENTED_EDGE('E14',*,*,#161,.T.);
#163=CARTESIAN_POINT('',(-2.2,-29.8,0.));
#164=VERTEX_POINT('',#163);
#165=CARTESIAN_POINT('',(-2.2,-29.8,20.855907881428));
#166=DIRECTION('',(0.,0.,-1.));
#167=VECTOR('',#166,20.855907881428);
#168=LINE('',#165,#167);
#169=EDGE_CURVE('',#155,#164,#168,.T.);
#170=ORIENTED_EDGE('E15',*,*,#169,.T.);
#171=CARTESIAN_POINT('',(-2.2,29.8,0.));
#172=VERTEX_POINT('',#171);
#173=CARTESIAN_POINT('',(-2.2,-29.8,0.));
#174=DIRECTION('',(0.,1.,0.));
#175=VECTOR('',#174,59.599999999999);
#176=LINE('',#173,#175);
#177=EDGE_CURVE('',#164,#172,#176,.T.);
#178=ORIENTED_EDGE('E16',*,*,#177,.T.);
#179=CARTESIAN_POINT('',(-2.2,29.8,20.855907881427));
#180=VERTEX_POINT('',#179);
#181=CARTESIAN_POINT('',(-2.2,29.8,0.));
#182=DIRECTION('',(0.,2.1804246234298E-14,1.));
#183=VECTOR('',#182,20.855907881427);
#184=LINE('',#181,#183);
#185=EDGE_CURVE('',#172,#180,#184,.T.);
#186=ORIENTED_EDGE('E17',*,*,#185,.T.);
#187=CARTESIAN_POINT('',(-2.2,29.723318274605,21.121993654036));
#188=VERTEX_POINT('',#187);
#189=CARTESIAN_POINT('',(-2.2,29.3,20.855907881427));
#190=DIRECTION('',(8.8817841970011E-16,1.,7.1054273576009E-15));
#191=DIRECTION('',(1.,-1.0230092705333E-15,-2.9481514622095E-16));
#192=AXIS2_PLACEMENT_3D('',#189,#191,#190);
#193=CIRCLE('',#192,0.50000000000001);
#194=EDGE_CURVE('',#180,#188,#193,.T.);
#195=ORIENTED_EDGE('E18',*,*,#194,.T.);
#196=CARTESIAN_POINT('',(-2.2,25.547031800074,27.76608577261));
#197=VERTEX_POINT('',#196);
#198=CARTESIAN_POINT('',(-2.2,29.723318274605,21.121993654036));
#199=DIRECTION('',(0.,-0.5321715452183,0.84663654921103));
#200=VECTOR('',#199,7.847632050335);
#201=LINE('',#198,#200);
#202=EDGE_CURVE('',#188,#197,#201,.T.);
#203=ORIENTED_EDGE('E19',*,*,#202,.T.);
#204=CARTESIAN_POINT('',(-2.2,25.123713525468,27.5));
#205=DIRECTION('',(8.8817841970013E-16,0.8466365492109,0.53217154521851));
#206=DIRECTION('',(1.,-2.1523562714974E-16,-3.8951531651151E-16));
#207=AXIS2_PLACEMENT_3D('',#204,#206,#205);
#208=CIRCLE('',#207,0.5);
#209=EDGE_CURVE('',#197,#128,#208,.T.);
#210=ORIENTED_EDGE('E20',*,*,#209,.T.);
#211=EDGE_LOOP('',(#136,#145,#153,#162,#170,#178,#186,#195,#203,#210));
#212=FACE_OUTER_BOUND('',#211,.F.);
#213=ADVANCED_FACE('F2',(#212),#126,.F.);
#214=CARTESIAN_POINT('',(-1.1,-4.5474735088646E-13,28.));
#215=DIRECTION('',(0.,-1.,-9.0501619202407E-15));
#216=DIRECTION('',(0.,9.0501619202407E-15,-1.));
#217=AXIS2_PLACEMENT_3D('',#214,#216,#215);
#218=PLANE('',#217);
#219=ORIENTED_EDGE('',*,*,#43,.T.);
#220=CARTESIAN_POINT('',(0.,-25.123713525469,28.));
#221=DIRECTION('',(-1.,0.,0.));
#222=VECTOR('',#221,2.2);
#223=LINE('',#220,#222);
#224=EDGE_CURVE('',#38,#130,#223,.T.);
#225=ORIENTED_EDGE('E21',*,*,#224,.T.);
#226=ORIENTED_EDGE('E21',*,*,#135,.F.);
#227=CARTESIAN_POINT('',(0.,25.123713525468,28.));
#228=DIRECTION('',(-1.,0.,0.));
#229=VECTOR('',#228,2.2);
#230=LINE('',#227,#229);
#231=EDGE_CURVE('',#36,#128,#230,.T.);
#232=ORIENTED_EDGE('E30',*,*,#231,.F.);
#233=EDGE_LOOP('',(#219,#225,#226,#232));
#234=FACE_OUTER_BOUND('',#233,.F.);
#235=ADVANCED_FACE('F3',(#234),#218,.F.);
#236=CARTESIAN_POINT('',(0.,-25.123713525469,27.5));
#237=DIRECTION('',(0.,0.,1.));
#238=DIRECTION('',(-1.,0.,0.));
#239=AXIS2_PLACEMENT_3D('',#236,#238,#237);
#240=CYLINDRICAL_SURFACE('',#239,0.49999999999996);
#241=ORIENTED_EDGE('',*,*,#52,.T.);
#242=CARTESIAN_POINT('',(0.,-25.547031800075,27.766085772609));
#243=DIRECTION('',(-1.,0.,0.));
#244=VECTOR('',#243,2.2);
#245=LINE('',#242,#244);
#246=EDGE_CURVE('',#46,#138,#245,.T.);
#247=ORIENTED_EDGE('E22',*,*,#246,.T.);
#248=ORIENTED_EDGE('E22',*,*,#144,.F.);
#249=ORIENTED_EDGE('E22',*,*,#224,.F.);
#250=EDGE_LOOP('',(#241,#247,#248,#249));
#251=FACE_OUTER_BOUND('',#250,.F.);
#252=ADVANCED_FACE('F4',(#251),#240,.T.);
#253=CARTESIAN_POINT('',(-1.1,-27.63517503734,24.444039713323));
#254=DIRECTION('',(0.,-0.53217154521833,-0.84663654921102));
#255=DIRECTION('',(0.,0.84663654921102,-0.53217154521833));
#256=AXIS2_PLACEMENT_3D('',#253,#255,#254);
#257=PLANE('',#256);
#258=ORIENTED_EDGE('',*,*,#60,.T.);
#259=CARTESIAN_POINT('',(0.,-29.723318274605,21.121993654037));
#260=DIRECTION('',(-1.,0.,0.));
#261=VECTOR('',#260,2.2);
#262=LINE('',#259,#261);
#263=EDGE_CURVE('',#55,#147,#262,.T.);
#264=ORIENTED_EDGE('E23',*,*,#263,.T.);
#265=ORIENTED_EDGE('E23',*,*,#152,.F.);
#266=ORIENTED_EDGE('E23',*,*,#246,.F.);
#267=EDGE_LOOP('',(#258,#264,#265,#266));
#268=FACE_OUTER_BOUND('',#267,.F.);
#269=ADVANCED_FACE('F5',(#268),#257,.F.);
#270=CARTESIAN_POINT('',(0.,-29.3,20.855907881428));
#271=DIRECTION('',(0.,-0.8466365492109,0.53217154521851));
#272=DIRECTION('',(-1.,0.,0.));
#273=AXIS2_PLACEMENT_3D('',#270,#272,#271);
#274=CYLINDRICAL_SURFACE('',#273,0.5);
#275=ORIENTED_EDGE('',*,*,#69,.T.);
#276=CARTESIAN_POINT('',(0.,-29.8,20.855907881428));
#277=DIRECTION('',(-1.,0.,0.));
#278=VECTOR('',#277,2.2);
#279=LINE('',#276,#278);
#280=EDGE_CURVE('',#63,#155,#279,.T.);
#281=ORIENTED_EDGE('E24',*,*,#280,.T.);
#282=ORIENTED_EDGE('E24',*,*,#161,.F.);
#283=ORIENTED_EDGE('E24',*,*,#263,.F.);
#284=EDGE_LOOP('',(#275,#281,#282,#283));
#285=FACE_OUTER_BOUND('',#284,.F.);
#286=ADVANCED_FACE('F6',(#285),#274,.T.);
#287=CARTESIAN_POINT('',(-1.1,-29.8,10.427953940714));
#288=DIRECTION('',(0.,0.,-1.));
#289=DIRECTION('',(0.,1.,0.));
#290=AXIS2_PLACEMENT_3D('',#287,#289,#288);
#291=PLANE('',#290);
#292=ORIENTED_EDGE('',*,*,#77,.T.);
#293=CARTESIAN_POINT('',(0.,-29.8,0.));
#294=DIRECTION('',(-1.,0.,0.));
#295=VECTOR('',#294,2.2);
#296=LINE('',#293,#295);
#297=EDGE_CURVE('',#72,#164,#296,.T.);
#298=ORIENTED_EDGE('E25',*,*,#297,.T.);
#299=ORIENTED_EDGE('E25',*,*,#169,.F.);
#300=ORIENTED_EDGE('E25',*,*,#280,.F.);
#301=EDGE_LOOP('',(#292,#298,#299,#300));
#302=FACE_OUTER_BOUND('',#301,.F.);
#303=ADVANCED_FACE('F7',(#302),#291,.F.);
#304=CARTESIAN_POINT('',(-1.1,0.,0.));
#305=DIRECTION('',(0.,1.,0.));
#306=DIRECTION('',(0.,-0.,1.));
#307=AXIS2_PLACEMENT_3D('',#304,#306,#305);
#308=PLANE('',#307);
#309=ORIENTED_EDGE('',*,*,#85,.T.);
#310=CARTESIAN_POINT('',(0.,29.8,0.));
#311=DIRECTION('',(-1.,0.,0.));
#312=VECTOR('',#311,2.2);
#313=LINE('',#310,#312);
#314=EDGE_CURVE('',#80,#172,#313,.T.);
#315=ORIENTED_EDGE('E26',*,*,#314,.T.);
#316=ORIENTED_EDGE('E26',*,*,#177,.F.);
#317=ORIENTED_EDGE('E26',*,*,#297,.F.);
#318=EDGE_LOOP('',(#309,#315,#316,#317));
#319=FACE_OUTER_BOUND('',#318,.F.);
#320=ADVANCED_FACE('F8',(#319),#308,.F.);
#321=CARTESIAN_POINT('',(-1.1,29.8,10.427953940713));
#322=DIRECTION('',(0.,2.1804246234298E-14,1.));
#323=DIRECTION('',(0.,-1.,2.1804246234298E-14));
#324=AXIS2_PLACEMENT_3D('',#321,#323,#322);
#325=PLANE('',#324);
#326=ORIENTED_EDGE('',*,*,#93,.T.);
#327=CARTESIAN_POINT('',(0.,29.8,20.855907881427));
#328=DIRECTION('',(-1.,0.,0.));
#329=VECTOR('',#328,2.2);
#330=LINE('',#327,#329);
#331=EDGE_CURVE('',#88,#180,#330,.T.);
#332=ORIENTED_EDGE('E27',*,*,#331,.T.);
#333=ORIENTED_EDGE('E27',*,*,#185,.F.);
#334=ORIENTED_EDGE('E27',*,*,#314,.F.);
#335=EDGE_LOOP('',(#326,#332,#333,#334));
#336=FACE_OUTER_BOUND('',#335,.F.);
#337=ADVANCED_FACE('F9',(#336),#325,.F.);
#338=CARTESIAN_POINT('',(0.,29.3,20.855907881427));
#339=DIRECTION('',(0.,1.,7.1054273575999E-15));
#340=DIRECTION('',(-1.,0.,0.));
#341=AXIS2_PLACEMENT_3D('',#338,#340,#339);
#342=CYLINDRICAL_SURFACE('',#341,0.50000000000008);
#343=ORIENTED_EDGE('',*,*,#102,.T.);
#344=CARTESIAN_POINT('',(0.,29.723318274606,21.121993654036));
#345=DIRECTION('',(-1.,0.,0.));
#346=VECTOR('',#345,2.2);
#347=LINE('',#344,#346);
#348=EDGE_CURVE('',#96,#188,#347,.T.);
#349=ORIENTED_EDGE('E28',*,*,#348,.T.);
#350=ORIENTED_EDGE('E28',*,*,#194,.F.);
#351=ORIENTED_EDGE('E28',*,*,#331,.F.);
#352=EDGE_LOOP('',(#343,#349,#350,#351));
#353=FACE_OUTER_BOUND('',#352,.F.);
#354=ADVANCED_FACE('F10',(#353),#342,.T.);
#355=CARTESIAN_POINT('',(-1.1,27.63517503734,24.444039713323));
#356=DIRECTION('',(0.,-0.5321715452183,0.84663654921103));
#357=DIRECTION('',(-0.,-0.84663654921103,-0.5321715452183));
#358=AXIS2_PLACEMENT_3D('',#355,#357,#356);
#359=PLANE('',#358);
#360=ORIENTED_EDGE('',*,*,#110,.T.);
#361=CARTESIAN_POINT('',(0.,25.547031800074,27.76608577261));
#362=DIRECTION('',(-1.,0.,0.));
#363=VECTOR('',#362,2.2);
#364=LINE('',#361,#363);
#365=EDGE_CURVE('',#105,#197,#364,.T.);
#366=ORIENTED_EDGE('E29',*,*,#365,.T.);
#367=ORIENTED_EDGE('E29',*,*,#202,.F.);
#368=ORIENTED_EDGE('E29',*,*,#348,.F.);
#369=EDGE_LOOP('',(#360,#366,#367,#368));
#370=FACE_OUTER_BOUND('',#369,.F.);
#371=ADVANCED_FACE('F11',(#370),#359,.F.);
#372=CARTESIAN_POINT('',(0.,25.123713525468,27.5));
#373=DIRECTION('',(0.,0.8466365492109,0.53217154521851));
#374=DIRECTION('',(-1.,0.,0.));
#375=AXIS2_PLACEMENT_3D('',#372,#374,#373);
#376=CYLINDRICAL_SURFACE('',#375,0.49999999999999);
#377=ORIENTED_EDGE('',*,*,#117,.T.);
#378=ORIENTED_EDGE('',*,*,#231,.T.);
#379=ORIENTED_EDGE('',*,*,#209,.F.);
#380=ORIENTED_EDGE('',*,*,#365,.F.);
#381=EDGE_LOOP('',(#377,#378,#379,#380));
#382=FACE_OUTER_BOUND('',#381,.F.);
#383=ADVANCED_FACE('F12',(#382),#376,.T.);
#384=CLOSED_SHELL('',(#121,#213,#235,#252,#269,#286,#303,#320,#337,#354,#371,#383));
#385=COLOUR_RGB('',0.745098,0.901961,0.960784);
#386=FILL_AREA_STYLE_COLOUR('',#385);
#387=FILL_AREA_STYLE('',(#386));
#388=SURFACE_STYLE_FILL_AREA(#387);
#389=SURFACE_SIDE_STYLE('',(#388));
#390=SURFACE_STYLE_USAGE(.BOTH.,#389);
#391=PRESENTATION_STYLE_ASSIGNMENT((#390));
#392=OVER_RIDING_STYLED_ITEM('',(#391),#121,#384);
#393=OVER_RIDING_STYLED_ITEM('',(#391),#213,#384);
#394=OVER_RIDING_STYLED_ITEM('',(#391),#235,#384);
#395=OVER_RIDING_STYLED_ITEM('',(#391),#252,#384);
#396=OVER_RIDING_STYLED_ITEM('',(#391),#269,#384);
#397=OVER_RIDING_STYLED_ITEM('',(#391),#286,#384);
#398=OVER_RIDING_STYLED_ITEM('',(#391),#303,#384);
#399=OVER_RIDING_STYLED_ITEM('',(#391),#320,#384);
#400=OVER_RIDING_STYLED_ITEM('',(#391),#337,#384);
#401=OVER_RIDING_STYLED_ITEM('',(#391),#354,#384);
#402=OVER_RIDING_STYLED_ITEM('',(#391),#371,#384);
#403=OVER_RIDING_STYLED_ITEM('',(#391),#383,#384);
#404=MANIFOLD_SOLID_BREP('S1',#384);
#405=ADVANCED_BREP_SHAPE_REPRESENTATION('',(#404),#5);
#406=SHAPE_REPRESENTATION_RELATIONSHIP('NONE', 'NONE', #28, #405);
#407=PRESENTATION_LAYER_ASSIGNMENT('Í¼²ã0000','',(#404));
#408=MECHANICAL_DESIGN_GEOMETRIC_PRESENTATION_REPRESENTATION('',(#392,#393,#394,#395,#396,#397,#398,#399,#400,#401,#402,#403),#5);
ENDSEC;
END-ISO-10303-21;
