ISO-10303-21;
HEADER;
FILE_DESCRIPTION(
  ('This file contains a STEP AP42 implementation'
    ,'as created by ZW3D STEP Interface translator.')
  ,'2;1'
  );
FILE_NAME(
  'D-RST6¶Ë°åÄ£ÐÍ.stp'
  ,'23 4 7. 91222',
  (''),
  ('ZWCAD Software Co.'),
  'Version 1.0',
  'ZW3D to STEP translator',
  ''
  );
FILE_SCHEMA(('AUTOMOTIVE_DESIGN { 1 0 10303 214 1 1 1 1 }'));
ENDSEC;

DATA;

/**File Base Unit**/
#1 = (LENGTH_UNIT()NAMED_UNIT(*)SI_UNIT(.MILLI.,.METRE.));
#2 = (NAMED_UNIT(*)PLANE_ANGLE_UNIT()SI_UNIT($,.RADIAN.));
#3 = (NAMED_UNIT(*)SI_UNIT($,.STERADIAN.)SOLID_ANGLE_UNIT());
#4 = UNCERTAINTY_MEASURE_WITH_UNIT(LENGTH_MEASURE(0.01),#1,'DISTANCE_ACCURACY_VALUE','Maximum Tolerance applied to model');
#5 = (GEOMETRIC_REPRESENTATION_CONTEXT(3)GLOBAL_UNCERTAINTY_ASSIGNED_CONTEXT((#4))GLOBAL_UNIT_ASSIGNED_CONTEXT((#1,#2,#3))REPRESENTATION_CONTEXT('STEP 203','TOP_LEVEL_ASSEMBLY_PART'));

/**product_definition_shape**/
#6=APPLICATION_CONTEXT('mechanical parts and assemblies' );
#7=DESIGN_CONTEXT('NONE',#6,'design');
#8=MECHANICAL_CONTEXT('NONE',#6,'mechanical');
#9=PRODUCT('0','Part','',(#8));
#10=PRODUCT_DEFINITION_FORMATION_WITH_SPECIFIED_SOURCE('ANY','',#9,.NOT_KNOWN.);
#11=PRODUCT_DEFINITION('UNKNOWN','',#10,#7);
#12=PRODUCT_DEFINITION_SHAPE('NONE','NONE',#11);
#13=PRODUCT_RELATED_PRODUCT_CATEGORY('detail','',(#9));
/**geometry information**/
#14=CARTESIAN_POINT('',(0.,0.,0.));
#15=DIRECTION('',(0.,0.,1.));
#16=DIRECTION('',(1.,0.,0.));
#17=AXIS2_PLACEMENT_3D('',#14,#15,#16);
#18=APPLICATION_CONTEXT('part');
#19=MECHANICAL_CONTEXT('none',#18,'component');
#20=PRODUCT('D-RST6¶Ë°åÄ£ÐÍ','D-RST6¶Ë°åÄ£ÐÍ','',(#19));
#21=PRODUCT_RELATED_PRODUCT_CATEGORY('detail','',(#20));
#22=PRODUCT_DEFINITION_FORMATION_WITH_SPECIFIED_SOURCE('ANY','UNSPECIFIED',#20,.NOT_KNOWN.);
#23=APPLICATION_CONTEXT('part');
#24=APPLICATION_PROTOCOL_DEFINITION('international standard','config_control_design',1994,#23);
#25=DESIGN_CONTEXT('detailed',#23,'design');
#26=PRODUCT_DEFINITION('','UNSPECIFIED',#22,#25);
#27=PRODUCT_DEFINITION_SHAPE('NONE','NONE',#26);
#28=SHAPE_REPRESENTATION('D-RST6¶Ë°åÄ£ÐÍ',(#17),#5);
#29=SHAPE_DEFINITION_REPRESENTATION(#27,#28);
#30=CARTESIAN_POINT('',(0.,0.,36.899999999998));
#31=DIRECTION('',(0.,1.,0.));
#32=DIRECTION('',(1.,0.,0.));
#33=AXIS2_PLACEMENT_3D('',#30,#32,#31);
#34=PLANE('',#33);
#35=CARTESIAN_POINT('',(0.,-36.9,-1.8189894035459E-12));
#36=VERTEX_POINT('',#35);
#37=CARTESIAN_POINT('',(0.,36.9,1.8189894035459E-12));
#38=VERTEX_POINT('',#37);
#39=CARTESIAN_POINT('',(0.,-36.9,-1.8189894035459E-12));
#40=DIRECTION('',(0.,1.,4.9295105787151E-14));
#41=VECTOR('',#40,73.8);
#42=LINE('',#39,#41);
#43=EDGE_CURVE('',#36,#38,#42,.T.);
#44=ORIENTED_EDGE('E1',*,*,#43,.T.);
#45=CARTESIAN_POINT('',(0.,36.9,22.299999999999));
#46=VERTEX_POINT('',#45);
#47=CARTESIAN_POINT('',(0.,36.9,1.8189894035459E-12));
#48=DIRECTION('',(0.,0.,1.));
#49=VECTOR('',#48,22.299999999997);
#50=LINE('',#47,#49);
#51=EDGE_CURVE('',#38,#46,#50,.T.);
#52=ORIENTED_EDGE('E2',*,*,#51,.T.);
#53=CARTESIAN_POINT('',(0.,30.946760815054,32.064220329912));
#54=VERTEX_POINT('',#53);
#55=CARTESIAN_POINT('',(0.,36.9,22.299999999999));
#56=DIRECTION('',(0.,-0.52057212909129,0.85381769624046));
#57=VECTOR('',#56,11.435954505168);
#58=LINE('',#55,#57);
#59=EDGE_CURVE('',#46,#54,#58,.T.);
#60=ORIENTED_EDGE('E3',*,*,#59,.T.);
#61=CARTESIAN_POINT('',(0.,30.522275694866,32.299999999999));
#62=VERTEX_POINT('',#61);
#63=CARTESIAN_POINT('',(0.,30.522275694866,31.799999999999));
#64=DIRECTION('',(0.,0.84897024037535,0.5284406598257));
#65=DIRECTION('',(1.,0.,0.));
#66=AXIS2_PLACEMENT_3D('',#63,#65,#64);
#67=CIRCLE('',#66,0.50000000000001);
#68=EDGE_CURVE('',#54,#62,#67,.T.);
#69=ORIENTED_EDGE('E4',*,*,#68,.T.);
#70=CARTESIAN_POINT('',(0.,-30.522275694867,32.299999999997));
#71=VERTEX_POINT('',#70);
#72=CARTESIAN_POINT('',(0.,30.522275694866,32.299999999999));
#73=DIRECTION('',(0.,-1.,-2.9914133027941E-14));
#74=VECTOR('',#73,61.044551389733);
#75=LINE('',#72,#74);
#76=EDGE_CURVE('',#62,#71,#75,.T.);
#77=ORIENTED_EDGE('E5',*,*,#76,.T.);
#78=CARTESIAN_POINT('',(0.,-30.946760815055,32.06422032991));
#79=VERTEX_POINT('',#78);
#80=CARTESIAN_POINT('',(0.,-30.522275694867,31.799999999997));
#81=DIRECTION('',(0.,0.,1.));
#82=DIRECTION('',(1.,0.,0.));
#83=AXIS2_PLACEMENT_3D('',#80,#82,#81);
#84=CIRCLE('',#83,0.50000000000001);
#85=EDGE_CURVE('',#71,#79,#84,.T.);
#86=ORIENTED_EDGE('E6',*,*,#85,.T.);
#87=CARTESIAN_POINT('',(0.,-36.9,22.299999999997));
#88=VERTEX_POINT('',#87);
#89=CARTESIAN_POINT('',(0.,-30.946760815055,32.06422032991));
#90=DIRECTION('',(0.,-0.5205721290913,-0.85381769624045));
#91=VECTOR('',#90,11.435954505166);
#92=LINE('',#89,#91);
#93=EDGE_CURVE('',#79,#88,#92,.T.);
#94=ORIENTED_EDGE('E7',*,*,#93,.T.);
#95=CARTESIAN_POINT('',(0.,-36.9,22.299999999997));
#96=DIRECTION('',(0.,0.,-1.));
#97=VECTOR('',#96,22.299999999999);
#98=LINE('',#95,#97);
#99=EDGE_CURVE('',#88,#36,#98,.T.);
#100=ORIENTED_EDGE('E8',*,*,#99,.T.);
#101=EDGE_LOOP('',(#44,#52,#60,#69,#77,#86,#94,#100));
#102=FACE_OUTER_BOUND('',#101,.T.);
#103=ADVANCED_FACE('F1',(#102),#34,.T.);
#104=CARTESIAN_POINT('',(-2.5,0.,36.899999999998));
#105=DIRECTION('',(0.,1.,0.));
#106=DIRECTION('',(1.,0.,0.));
#107=AXIS2_PLACEMENT_3D('',#104,#106,#105);
#108=PLANE('',#107);
#109=CARTESIAN_POINT('',(-2.5,-36.9,-1.8189894035459E-12));
#110=VERTEX_POINT('',#109);
#111=CARTESIAN_POINT('',(-2.5,36.9,1.8189894035459E-12));
#112=VERTEX_POINT('',#111);
#113=CARTESIAN_POINT('',(-2.5,-36.9,-1.8189894035459E-12));
#114=DIRECTION('',(0.,1.,4.9295105787151E-14));
#115=VECTOR('',#114,73.8);
#116=LINE('',#113,#115);
#117=EDGE_CURVE('',#110,#112,#116,.T.);
#118=ORIENTED_EDGE('E9',*,*,#117,.T.);
#119=CARTESIAN_POINT('',(-2.5,36.9,22.299999999999));
#120=VERTEX_POINT('',#119);
#121=CARTESIAN_POINT('',(-2.5,36.9,1.8189894035459E-12));
#122=DIRECTION('',(0.,0.,1.));
#123=VECTOR('',#122,22.299999999997);
#124=LINE('',#121,#123);
#125=EDGE_CURVE('',#112,#120,#124,.T.);
#126=ORIENTED_EDGE('E10',*,*,#125,.T.);
#127=CARTESIAN_POINT('',(-2.5,30.946760815054,32.064220329912));
#128=VERTEX_POINT('',#127);
#129=CARTESIAN_POINT('',(-2.5,36.9,22.299999999999));
#130=DIRECTION('',(0.,-0.52057212909129,0.85381769624046));
#131=VECTOR('',#130,11.435954505168);
#132=LINE('',#129,#131);
#133=EDGE_CURVE('',#120,#128,#132,.T.);
#134=ORIENTED_EDGE('E11',*,*,#133,.T.);
#135=CARTESIAN_POINT('',(-2.5,30.522275694866,32.299999999999));
#136=VERTEX_POINT('',#135);
#137=CARTESIAN_POINT('',(-2.5,30.522275694866,31.799999999999));
#138=DIRECTION('',(8.881784197001E-16,0.84897024037535,0.5284406598257));
#139=DIRECTION('',(1.,-6.4278175461172E-16,-1.1572299268208E-15));
#140=AXIS2_PLACEMENT_3D('',#137,#139,#138);
#141=CIRCLE('',#140,0.50000000000001);
#142=EDGE_CURVE('',#128,#136,#141,.T.);
#143=ORIENTED_EDGE('E12',*,*,#142,.T.);
#144=CARTESIAN_POINT('',(-2.5,-30.522275694867,32.299999999997));
#145=VERTEX_POINT('',#144);
#146=CARTESIAN_POINT('',(-2.5,30.522275694866,32.299999999999));
#147=DIRECTION('',(0.,-1.,-2.9914133027941E-14));
#148=VECTOR('',#147,61.044551389733);
#149=LINE('',#146,#148);
#150=EDGE_CURVE('',#136,#145,#149,.T.);
#151=ORIENTED_EDGE('E13',*,*,#150,.T.);
#152=CARTESIAN_POINT('',(-2.5,-30.946760815055,32.06422032991));
#153=VERTEX_POINT('',#152);
#154=CARTESIAN_POINT('',(-2.5,-30.522275694867,31.799999999997));
#155=DIRECTION('',(8.8817841970009E-16,0.,1.));
#156=DIRECTION('',(1.,6.4278175461172E-16,-1.1572299268209E-15));
#157=AXIS2_PLACEMENT_3D('',#154,#156,#155);
#158=CIRCLE('',#157,0.50000000000001);
#159=EDGE_CURVE('',#145,#153,#158,.T.);
#160=ORIENTED_EDGE('E14',*,*,#159,.T.);
#161=CARTESIAN_POINT('',(-2.5,-36.9,22.299999999997));
#162=VERTEX_POINT('',#161);
#163=CARTESIAN_POINT('',(-2.5,-30.946760815055,32.06422032991));
#164=DIRECTION('',(0.,-0.5205721290913,-0.85381769624045));
#165=VECTOR('',#164,11.435954505166);
#166=LINE('',#163,#165);
#167=EDGE_CURVE('',#153,#162,#166,.T.);
#168=ORIENTED_EDGE('E15',*,*,#167,.T.);
#169=CARTESIAN_POINT('',(-2.5,-36.9,22.299999999997));
#170=DIRECTION('',(0.,0.,-1.));
#171=VECTOR('',#170,22.299999999999);
#172=LINE('',#169,#171);
#173=EDGE_CURVE('',#162,#110,#172,.T.);
#174=ORIENTED_EDGE('E16',*,*,#173,.T.);
#175=EDGE_LOOP('',(#118,#126,#134,#143,#151,#160,#168,#174));
#176=FACE_OUTER_BOUND('',#175,.F.);
#177=ADVANCED_FACE('F2',(#176),#108,.F.);
#178=CARTESIAN_POINT('',(-1.25,0.,0.));
#179=DIRECTION('',(0.,1.,4.9295105787151E-14));
#180=DIRECTION('',(0.,-4.9295105787151E-14,1.));
#181=AXIS2_PLACEMENT_3D('',#178,#180,#179);
#182=PLANE('',#181);
#183=ORIENTED_EDGE('',*,*,#43,.T.);
#184=CARTESIAN_POINT('',(0.,36.9,1.8189894035459E-12));
#185=DIRECTION('',(-1.,0.,0.));
#186=VECTOR('',#185,2.5);
#187=LINE('',#184,#186);
#188=EDGE_CURVE('',#38,#112,#187,.T.);
#189=ORIENTED_EDGE('E17',*,*,#188,.T.);
#190=ORIENTED_EDGE('E17',*,*,#117,.F.);
#191=CARTESIAN_POINT('',(0.,-36.9,-1.8189894035459E-12));
#192=DIRECTION('',(-1.,0.,0.));
#193=VECTOR('',#192,2.5);
#194=LINE('',#191,#193);
#195=EDGE_CURVE('',#36,#110,#194,.T.);
#196=ORIENTED_EDGE('E24',*,*,#195,.F.);
#197=EDGE_LOOP('',(#183,#189,#190,#196));
#198=FACE_OUTER_BOUND('',#197,.F.);
#199=ADVANCED_FACE('F3',(#198),#182,.F.);
#200=CARTESIAN_POINT('',(-1.25,36.9,11.150000000001));
#201=DIRECTION('',(0.,0.,1.));
#202=DIRECTION('',(0.,-1.,0.));
#203=AXIS2_PLACEMENT_3D('',#200,#202,#201);
#204=PLANE('',#203);
#205=ORIENTED_EDGE('',*,*,#51,.T.);
#206=CARTESIAN_POINT('',(0.,36.9,22.299999999999));
#207=DIRECTION('',(-1.,0.,0.));
#208=VECTOR('',#207,2.5);
#209=LINE('',#206,#208);
#210=EDGE_CURVE('',#46,#120,#209,.T.);
#211=ORIENTED_EDGE('E18',*,*,#210,.T.);
#212=ORIENTED_EDGE('E18',*,*,#125,.F.);
#213=ORIENTED_EDGE('E18',*,*,#188,.F.);
#214=EDGE_LOOP('',(#205,#211,#212,#213));
#215=FACE_OUTER_BOUND('',#214,.F.);
#216=ADVANCED_FACE('F4',(#215),#204,.F.);
#217=CARTESIAN_POINT('',(-1.25,33.923380407527,27.182110164956));
#218=DIRECTION('',(0.,-0.52057212909129,0.85381769624046));
#219=DIRECTION('',(-0.,-0.85381769624046,-0.52057212909129));
#220=AXIS2_PLACEMENT_3D('',#217,#219,#218);
#221=PLANE('',#220);
#222=ORIENTED_EDGE('',*,*,#59,.T.);
#223=CARTESIAN_POINT('',(0.,30.946760815054,32.064220329912));
#224=DIRECTION('',(-1.,0.,0.));
#225=VECTOR('',#224,2.5);
#226=LINE('',#223,#225);
#227=EDGE_CURVE('',#54,#128,#226,.T.);
#228=ORIENTED_EDGE('E19',*,*,#227,.T.);
#229=ORIENTED_EDGE('E19',*,*,#133,.F.);
#230=ORIENTED_EDGE('E19',*,*,#210,.F.);
#231=EDGE_LOOP('',(#222,#228,#229,#230));
#232=FACE_OUTER_BOUND('',#231,.F.);
#233=ADVANCED_FACE('F5',(#232),#221,.F.);
#234=CARTESIAN_POINT('',(0.,30.522275694866,31.799999999999));
#235=DIRECTION('',(0.,0.84897024037536,0.52844065982568));
#236=DIRECTION('',(-1.,0.,0.));
#237=AXIS2_PLACEMENT_3D('',#234,#236,#235);
#238=CYLINDRICAL_SURFACE('',#237,0.50000000000001);
#239=ORIENTED_EDGE('',*,*,#68,.T.);
#240=CARTESIAN_POINT('',(0.,30.522275694866,32.299999999999));
#241=DIRECTION('',(-1.,0.,0.));
#242=VECTOR('',#241,2.5);
#243=LINE('',#240,#242);
#244=EDGE_CURVE('',#62,#136,#243,.T.);
#245=ORIENTED_EDGE('E20',*,*,#244,.T.);
#246=ORIENTED_EDGE('E20',*,*,#142,.F.);
#247=ORIENTED_EDGE('E20',*,*,#227,.F.);
#248=EDGE_LOOP('',(#239,#245,#246,#247));
#249=FACE_OUTER_BOUND('',#248,.F.);
#250=ADVANCED_FACE('F6',(#249),#238,.T.);
#251=CARTESIAN_POINT('',(-1.25,-4.5474735088646E-13,32.299999999998));
#252=DIRECTION('',(0.,-1.,-2.9914133027941E-14));
#253=DIRECTION('',(0.,2.9914133027941E-14,-1.));
#254=AXIS2_PLACEMENT_3D('',#251,#253,#252);
#255=PLANE('',#254);
#256=ORIENTED_EDGE('',*,*,#76,.T.);
#257=CARTESIAN_POINT('',(0.,-30.522275694867,32.299999999997));
#258=DIRECTION('',(-1.,0.,0.));
#259=VECTOR('',#258,2.5);
#260=LINE('',#257,#259);
#261=EDGE_CURVE('',#71,#145,#260,.T.);
#262=ORIENTED_EDGE('E21',*,*,#261,.T.);
#263=ORIENTED_EDGE('E21',*,*,#150,.F.);
#264=ORIENTED_EDGE('E21',*,*,#244,.F.);
#265=EDGE_LOOP('',(#256,#262,#263,#264));
#266=FACE_OUTER_BOUND('',#265,.F.);
#267=ADVANCED_FACE('F7',(#266),#255,.F.);
#268=CARTESIAN_POINT('',(0.,-30.522275694867,31.799999999997));
#269=DIRECTION('',(0.,-1.42108547152E-14,1.));
#270=DIRECTION('',(-1.,0.,0.));
#271=AXIS2_PLACEMENT_3D('',#268,#270,#269);
#272=CYLINDRICAL_SURFACE('',#271,0.50000000000006);
#273=ORIENTED_EDGE('',*,*,#85,.T.);
#274=CARTESIAN_POINT('',(0.,-30.946760815055,32.06422032991));
#275=DIRECTION('',(-1.,0.,0.));
#276=VECTOR('',#275,2.5);
#277=LINE('',#274,#276);
#278=EDGE_CURVE('',#79,#153,#277,.T.);
#279=ORIENTED_EDGE('E22',*,*,#278,.T.);
#280=ORIENTED_EDGE('E22',*,*,#159,.F.);
#281=ORIENTED_EDGE('E22',*,*,#261,.F.);
#282=EDGE_LOOP('',(#273,#279,#280,#281));
#283=FACE_OUTER_BOUND('',#282,.F.);
#284=ADVANCED_FACE('F8',(#283),#272,.T.);
#285=CARTESIAN_POINT('',(-1.25,-33.923380407527,27.182110164955));
#286=DIRECTION('',(0.,-0.5205721290913,-0.85381769624045));
#287=DIRECTION('',(0.,0.85381769624045,-0.5205721290913));
#288=AXIS2_PLACEMENT_3D('',#285,#287,#286);
#289=PLANE('',#288);
#290=ORIENTED_EDGE('',*,*,#93,.T.);
#291=CARTESIAN_POINT('',(0.,-36.9,22.299999999999));
#292=DIRECTION('',(-1.,0.,0.));
#293=VECTOR('',#292,2.5);
#294=LINE('',#291,#293);
#295=EDGE_CURVE('',#88,#162,#294,.T.);
#296=ORIENTED_EDGE('E23',*,*,#295,.T.);
#297=ORIENTED_EDGE('E23',*,*,#167,.F.);
#298=ORIENTED_EDGE('E23',*,*,#278,.F.);
#299=EDGE_LOOP('',(#290,#296,#297,#298));
#300=FACE_OUTER_BOUND('',#299,.F.);
#301=ADVANCED_FACE('F9',(#300),#289,.F.);
#302=CARTESIAN_POINT('',(-1.25,-36.9,11.149999999998));
#303=DIRECTION('',(0.,0.,-1.));
#304=DIRECTION('',(0.,1.,0.));
#305=AXIS2_PLACEMENT_3D('',#302,#304,#303);
#306=PLANE('',#305);
#307=ORIENTED_EDGE('',*,*,#99,.T.);
#308=ORIENTED_EDGE('',*,*,#195,.T.);
#309=ORIENTED_EDGE('',*,*,#173,.F.);
#310=ORIENTED_EDGE('',*,*,#295,.F.);
#311=EDGE_LOOP('',(#307,#308,#309,#310));
#312=FACE_OUTER_BOUND('',#311,.F.);
#313=ADVANCED_FACE('F10',(#312),#306,.F.);
#314=CLOSED_SHELL('',(#103,#177,#199,#216,#233,#250,#267,#284,#301,#313));
#315=COLOUR_RGB('',0.745098,0.901961,0.960784);
#316=FILL_AREA_STYLE_COLOUR('',#315);
#317=FILL_AREA_STYLE('',(#316));
#318=SURFACE_STYLE_FILL_AREA(#317);
#319=SURFACE_SIDE_STYLE('',(#318));
#320=SURFACE_STYLE_USAGE(.BOTH.,#319);
#321=PRESENTATION_STYLE_ASSIGNMENT((#320));
#322=OVER_RIDING_STYLED_ITEM('',(#321),#103,#314);
#323=OVER_RIDING_STYLED_ITEM('',(#321),#177,#314);
#324=OVER_RIDING_STYLED_ITEM('',(#321),#199,#314);
#325=OVER_RIDING_STYLED_ITEM('',(#321),#216,#314);
#326=OVER_RIDING_STYLED_ITEM('',(#321),#233,#314);
#327=OVER_RIDING_STYLED_ITEM('',(#321),#250,#314);
#328=OVER_RIDING_STYLED_ITEM('',(#321),#267,#314);
#329=OVER_RIDING_STYLED_ITEM('',(#321),#284,#314);
#330=OVER_RIDING_STYLED_ITEM('',(#321),#301,#314);
#331=OVER_RIDING_STYLED_ITEM('',(#321),#313,#314);
#332=MANIFOLD_SOLID_BREP('S1',#314);
#333=ADVANCED_BREP_SHAPE_REPRESENTATION('',(#332),#5);
#334=SHAPE_REPRESENTATION_RELATIONSHIP('NONE', 'NONE', #28, #333);
#335=PRESENTATION_LAYER_ASSIGNMENT('Í¼²ã0000','',(#332));
#336=MECHANICAL_DESIGN_GEOMETRIC_PRESENTATION_REPRESENTATION('',(#322,#323,#324,#325,#326,#327,#328,#329,#330,#331),#5);
ENDSEC;
END-ISO-10303-21;
