ISO-10303-21;
HEADER;
FILE_DESCRIPTION(('STEP AP203'),'1');
FILE_NAME('2770024.stp','2022-05-09T01:00:54',('TraceParts'),('TraceParts S.A.'),'Spatial InterOp 3D',' ',' ');
FILE_SCHEMA(('CONFIG_CONTROL_DESIGN'));
ENDSEC;
DATA;
#1=DESIGN_CONTEXT('',#27,'design');
#2=APPLICATION_PROTOCOL_DEFINITION('INTERNATIONAL STANDARD','config_control_design',1994,#27);
#3=PRODUCT_CATEGORY_RELATIONSHIP('NONE','NONE',#28,#29);
#4=DATE_AND_TIME(#30,#31);
#5=DATE_TIME_ROLE('creation_date');
#6=DATE_TIME_ROLE('classification_date');
#7=PERSON_AND_ORGANIZATION_ROLE('creator');
#8=PERSON_AND_ORGANIZATION_ROLE('design_supplier');
#9=PERSON_AND_ORGANIZATION_ROLE('classification_officer');
#10=PERSON_AND_ORGANIZATION_ROLE('design_owner');
#11=APPROVAL_PERSON_ORGANIZATION(#32,#33,#34);
#12=APPROVAL_DATE_TIME(#4,#33);
#13=CC_DESIGN_APPROVAL(#33,(#35,#36,#37));
#14=CC_DESIGN_DATE_AND_TIME_ASSIGNMENT(#4,#5,(#37));
#15=CC_DESIGN_DATE_AND_TIME_ASSIGNMENT(#4,#6,(#35));
#16=CC_DESIGN_PERSON_AND_ORGANIZATION_ASSIGNMENT(#32,#10,(#38));
#17=CC_DESIGN_PERSON_AND_ORGANIZATION_ASSIGNMENT(#32,#7,(#37));
#18=CC_DESIGN_PERSON_AND_ORGANIZATION_ASSIGNMENT(#32,#7,(#36));
#19=CC_DESIGN_PERSON_AND_ORGANIZATION_ASSIGNMENT(#32,#8,(#36));
#20=CC_DESIGN_SECURITY_CLASSIFICATION(#35,(#36));
#21=CC_DESIGN_PERSON_AND_ORGANIZATION_ASSIGNMENT(#32,#9,(#35));
#22=SHAPE_DEFINITION_REPRESENTATION(#39,#40);
#23= (GEOMETRIC_REPRESENTATION_CONTEXT(3)GLOBAL_UNCERTAINTY_ASSIGNED_CONTEXT((#43))GLOBAL_UNIT_ASSIGNED_CONTEXT((#45,#46,#47))REPRESENTATION_CONTEXT('NONE','WORKSPACE'));
#27=APPLICATION_CONTEXT('CONFIGURATION CONTROLLED 3D DESIGNS OF MECHANICAL PARTS AND ASSEMBLIES');
#28=PRODUCT_CATEGORY('part','NONE');
#29=PRODUCT_RELATED_PRODUCT_CATEGORY('detail',' ',(#38));
#30=CALENDAR_DATE(2022,9,4);
#31=LOCAL_TIME(3,0,54.0,#49);
#32=PERSON_AND_ORGANIZATION(#50,#51);
#33=APPROVAL(#52,'SOLID MODEL');
#34=APPROVAL_ROLE('APPROVED');
#35=SECURITY_CLASSIFICATION('','',#53);
#36=PRODUCT_DEFINITION_FORMATION_WITH_SPECIFIED_SOURCE(' ','NONE',#38,.NOT_KNOWN.);
#37=PRODUCT_DEFINITION('','NONE',#36,#1);
#38=PRODUCT('1','','PART--DESC',(#54));
#39=PRODUCT_DEFINITION_SHAPE('NONE','NONE',#37);
#40=ADVANCED_BREP_SHAPE_REPRESENTATION('1',(#55,#56),#23);
#43=UNCERTAINTY_MEASURE_WITH_UNIT(LENGTH_MEASURE(1.0E-06),#45,'','');
#45= (CONVERSION_BASED_UNIT('MILLIMETRE',#59)LENGTH_UNIT()NAMED_UNIT(#62));
#46= (NAMED_UNIT(#64)PLANE_ANGLE_UNIT()SI_UNIT($,.RADIAN.));
#47= (NAMED_UNIT(#64)SOLID_ANGLE_UNIT()SI_UNIT($,.STERADIAN.));
#49=COORDINATED_UNIVERSAL_TIME_OFFSET(1,0,.AHEAD.);
#50=PERSON('','UNSPECIFIED',$,$,$,$);
#51=ORGANIZATION('UNSPECIFIED','UNSPECIFIED','UNSPECIFIED');
#52=APPROVAL_STATUS('approved');
#53=SECURITY_CLASSIFICATION_LEVEL('unclassified');
#54=MECHANICAL_CONTEXT('',#27,'mechanical');
#55=MANIFOLD_SOLID_BREP('1',#70);
#56=AXIS2_PLACEMENT_3D('',#71,#72,#73);
#59=LENGTH_MEASURE_WITH_UNIT(LENGTH_MEASURE(1.0),#74);
#62=DIMENSIONAL_EXPONENTS(1.0,0.0,0.0,0.0,0.0,0.0,0.0);
#64=DIMENSIONAL_EXPONENTS(0.0,0.0,0.0,0.0,0.0,0.0,0.0);
#70=CLOSED_SHELL('',(#75,#76,#77,#78,#79,#80,#81,#82,#83,#84,#85,#86,#87,#88,#89,#90,#91,#92));
#71=CARTESIAN_POINT('',(0.0,0.0,0.0));
#72=DIRECTION('',(0.0,0.0,1.0));
#73=DIRECTION('',(1.0,0.0,0.0));
#74= (NAMED_UNIT(#62)LENGTH_UNIT()SI_UNIT(.MILLI.,.METRE.));
#75=ADVANCED_FACE('',(#94),#95,.T.);
#76=ADVANCED_FACE('',(#96),#97,.T.);
#77=ADVANCED_FACE('',(#98),#99,.T.);
#78=ADVANCED_FACE('',(#100),#101,.T.);
#79=ADVANCED_FACE('',(#102),#103,.F.);
#80=ADVANCED_FACE('',(#104),#105,.T.);
#81=ADVANCED_FACE('',(#106),#107,.T.);
#82=ADVANCED_FACE('',(#108),#109,.T.);
#83=ADVANCED_FACE('',(#110),#111,.T.);
#84=ADVANCED_FACE('',(#112),#113,.T.);
#85=ADVANCED_FACE('',(#114),#115,.T.);
#86=ADVANCED_FACE('',(#116),#117,.T.);
#87=ADVANCED_FACE('',(#118),#119,.T.);
#88=ADVANCED_FACE('',(#120),#121,.T.);
#89=ADVANCED_FACE('',(#122),#123,.T.);
#90=ADVANCED_FACE('',(#124),#125,.T.);
#91=ADVANCED_FACE('',(#126),#127,.T.);
#92=ADVANCED_FACE('',(#128),#129,.F.);
#94=FACE_OUTER_BOUND('',#130,.T.);
#95=PLANE('',#131);
#96=FACE_OUTER_BOUND('',#132,.T.);
#97=PLANE('',#133);
#98=FACE_OUTER_BOUND('',#134,.T.);
#99=PLANE('',#135);
#100=FACE_OUTER_BOUND('',#136,.T.);
#101=PLANE('',#137);
#102=FACE_OUTER_BOUND('',#138,.T.);
#103=PLANE('',#139);
#104=FACE_OUTER_BOUND('',#140,.T.);
#105=PLANE('',#141);
#106=FACE_OUTER_BOUND('',#142,.T.);
#107=PLANE('',#143);
#108=FACE_OUTER_BOUND('',#144,.T.);
#109=PLANE('',#145);
#110=FACE_OUTER_BOUND('',#146,.T.);
#111=PLANE('',#147);
#112=FACE_OUTER_BOUND('',#148,.T.);
#113=PLANE('',#149);
#114=FACE_OUTER_BOUND('',#150,.T.);
#115=PLANE('',#151);
#116=FACE_OUTER_BOUND('',#152,.T.);
#117=PLANE('',#153);
#118=FACE_OUTER_BOUND('',#154,.T.);
#119=PLANE('',#155);
#120=FACE_OUTER_BOUND('',#156,.T.);
#121=PLANE('',#157);
#122=FACE_OUTER_BOUND('',#158,.T.);
#123=PLANE('',#159);
#124=FACE_OUTER_BOUND('',#160,.T.);
#125=PLANE('',#161);
#126=FACE_OUTER_BOUND('',#162,.T.);
#127=PLANE('',#163);
#128=FACE_OUTER_BOUND('',#164,.T.);
#129=PLANE('',#165);
#130=EDGE_LOOP('',(#166,#167,#168,#169,#170,#171));
#131=AXIS2_PLACEMENT_3D('',#172,#173,#174);
#132=EDGE_LOOP('',(#175,#176,#177,#178));
#133=AXIS2_PLACEMENT_3D('',#179,#180,#181);
#134=EDGE_LOOP('',(#182,#183,#184,#185));
#135=AXIS2_PLACEMENT_3D('',#186,#187,#188);
#136=EDGE_LOOP('',(#189,#190,#191,#192));
#137=AXIS2_PLACEMENT_3D('',#193,#194,#195);
#138=EDGE_LOOP('',(#196,#197,#198,#199,#200,#201));
#139=AXIS2_PLACEMENT_3D('',#202,#203,#204);
#140=EDGE_LOOP('',(#205,#206,#207,#208,#209,#210));
#141=AXIS2_PLACEMENT_3D('',#211,#212,#213);
#142=EDGE_LOOP('',(#214,#215,#216,#217));
#143=AXIS2_PLACEMENT_3D('',#218,#219,#220);
#144=EDGE_LOOP('',(#221,#222,#223,#224));
#145=AXIS2_PLACEMENT_3D('',#225,#226,#227);
#146=EDGE_LOOP('',(#228,#229,#230,#231));
#147=AXIS2_PLACEMENT_3D('',#232,#233,#234);
#148=EDGE_LOOP('',(#235,#236,#237,#238));
#149=AXIS2_PLACEMENT_3D('',#239,#240,#241);
#150=EDGE_LOOP('',(#242,#243,#244,#245));
#151=AXIS2_PLACEMENT_3D('',#246,#247,#248);
#152=EDGE_LOOP('',(#249,#250,#251,#252,#253,#254));
#153=AXIS2_PLACEMENT_3D('',#255,#256,#257);
#154=EDGE_LOOP('',(#258,#259,#260,#261));
#155=AXIS2_PLACEMENT_3D('',#262,#263,#264);
#156=EDGE_LOOP('',(#265,#266,#267,#268));
#157=AXIS2_PLACEMENT_3D('',#269,#270,#271);
#158=EDGE_LOOP('',(#272,#273,#274,#275,#276,#277,#278,#279));
#159=AXIS2_PLACEMENT_3D('',#280,#281,#282);
#160=EDGE_LOOP('',(#283,#284,#285,#286));
#161=AXIS2_PLACEMENT_3D('',#287,#288,#289);
#162=EDGE_LOOP('',(#290,#291,#292,#293));
#163=AXIS2_PLACEMENT_3D('',#294,#295,#296);
#164=EDGE_LOOP('',(#297,#298,#299,#300,#301,#302,#303,#304));
#165=AXIS2_PLACEMENT_3D('',#305,#306,#307);
#166=ORIENTED_EDGE('',*,*,#308,.F.);
#167=ORIENTED_EDGE('',*,*,#309,.T.);
#168=ORIENTED_EDGE('',*,*,#310,.F.);
#169=ORIENTED_EDGE('',*,*,#311,.F.);
#170=ORIENTED_EDGE('',*,*,#312,.F.);
#171=ORIENTED_EDGE('',*,*,#313,.T.);
#172=CARTESIAN_POINT('',(5.50000239999996,44.0,24.9999999999998));
#173=DIRECTION('',(-7.63278329429795E-16,1.0,7.63278329429793E-16));
#174=DIRECTION('',(-1.0,-7.63278329429795E-16,-1.14423774522204E-17));
#175=ORIENTED_EDGE('',*,*,#314,.F.);
#176=ORIENTED_EDGE('',*,*,#315,.F.);
#177=ORIENTED_EDGE('',*,*,#316,.T.);
#178=ORIENTED_EDGE('',*,*,#309,.F.);
#179=CARTESIAN_POINT('',(2.49999999999995,48.262644,24.9999999999998));
#180=DIRECTION('',(-1.14423774522198E-17,-7.63278329429793E-16,1.0));
#181=DIRECTION('',(7.63278329429795E-16,-1.0,-7.63278329429793E-16));
#182=ORIENTED_EDGE('',*,*,#317,.F.);
#183=ORIENTED_EDGE('',*,*,#318,.T.);
#184=ORIENTED_EDGE('',*,*,#319,.T.);
#185=ORIENTED_EDGE('',*,*,#312,.T.);
#186=CARTESIAN_POINT('',(5.50000239999996,39.6837969098178,50.8586705280566));
#187=DIRECTION('',(-7.2116053734717E-16,0.939692620785911,0.342020143325663));
#188=DIRECTION('',(-1.0,-7.63278329429795E-16,-1.14423774522204E-17));
#189=ORIENTED_EDGE('',*,*,#320,.T.);
#190=ORIENTED_EDGE('',*,*,#315,.T.);
#191=ORIENTED_EDGE('',*,*,#321,.F.);
#192=ORIENTED_EDGE('',*,*,#322,.F.);
#193=CARTESIAN_POINT('',(2.49999999999995,50.5000000000001,24.9999999999998));
#194=DIRECTION('',(-5.47810265361908E-16,0.707106781186546,0.707106781186549));
#195=DIRECTION('',(-1.0,-7.63278329429795E-16,-1.14423774522204E-17));
#196=ORIENTED_EDGE('',*,*,#319,.F.);
#197=ORIENTED_EDGE('',*,*,#323,.F.);
#198=ORIENTED_EDGE('',*,*,#324,.F.);
#199=ORIENTED_EDGE('',*,*,#325,.F.);
#200=ORIENTED_EDGE('',*,*,#326,.F.);
#201=ORIENTED_EDGE('',*,*,#313,.F.);
#202=CARTESIAN_POINT('',(2.49999999999998,16.4941046202074,32.5692702941295));
#203=DIRECTION('',(-1.0,-7.63278329429795E-16,-1.14423774522204E-17));
#204=DIRECTION('',(7.63278329429795E-16,-1.0,-7.63278329429793E-16));
#205=ORIENTED_EDGE('',*,*,#317,.T.);
#206=ORIENTED_EDGE('',*,*,#311,.T.);
#207=ORIENTED_EDGE('',*,*,#327,.T.);
#208=ORIENTED_EDGE('',*,*,#328,.T.);
#209=ORIENTED_EDGE('',*,*,#329,.T.);
#210=ORIENTED_EDGE('',*,*,#330,.T.);
#211=CARTESIAN_POINT('',(-5.64283750311598E-14,56.0,27.9793839814853));
#212=DIRECTION('',(-1.0,-7.63278329429795E-16,-1.14423774522204E-17));
#213=DIRECTION('',(7.63278329429795E-16,-1.0,-7.63278329429793E-16));
#214=ORIENTED_EDGE('',*,*,#310,.T.);
#215=ORIENTED_EDGE('',*,*,#331,.T.);
#216=ORIENTED_EDGE('',*,*,#332,.T.);
#217=ORIENTED_EDGE('',*,*,#327,.F.);
#218=CARTESIAN_POINT('',(2.49999999999995,56.0,24.9999999999998));
#219=DIRECTION('',(-0.766044443118978,-9.407926991312E-17,-0.642787609686539));
#220=DIRECTION('',(-7.63278329429795E-16,1.0,7.63278329429793E-16));
#221=ORIENTED_EDGE('',*,*,#308,.T.);
#222=ORIENTED_EDGE('',*,*,#326,.T.);
#223=ORIENTED_EDGE('',*,*,#333,.T.);
#224=ORIENTED_EDGE('',*,*,#334,.F.);
#225=CARTESIAN_POINT('',(2.49999999999995,56.0,27.9793839814853));
#226=DIRECTION('',(0.766044443118978,9.407926991312E-17,0.642787609686539));
#227=DIRECTION('',(-7.63278329429795E-16,1.0,7.63278329429793E-16));
#228=ORIENTED_EDGE('',*,*,#329,.F.);
#229=ORIENTED_EDGE('',*,*,#335,.F.);
#230=ORIENTED_EDGE('',*,*,#324,.T.);
#231=ORIENTED_EDGE('',*,*,#336,.T.);
#232=CARTESIAN_POINT('',(5.50000239999998,16.4921279628845,51.3420201433255));
#233=DIRECTION('',(7.13333490194781E-16,-0.939692620785911,0.342020143325661));
#234=DIRECTION('',(1.0,7.63278329429795E-16,1.14423774522204E-17));
#235=ORIENTED_EDGE('',*,*,#337,.F.);
#236=ORIENTED_EDGE('',*,*,#338,.F.);
#237=ORIENTED_EDGE('',*,*,#339,.F.);
#238=ORIENTED_EDGE('',*,*,#340,.F.);
#239=CARTESIAN_POINT('',(2.49999999999999,-2.1316282072803E-14,17.2562569999998));
#240=DIRECTION('',(7.63278329429795E-16,-1.0,-7.63278329429793E-16));
#241=DIRECTION('',(-1.14423774522198E-17,-7.63278329429793E-16,1.0));
#242=ORIENTED_EDGE('',*,*,#330,.F.);
#243=ORIENTED_EDGE('',*,*,#336,.F.);
#244=ORIENTED_EDGE('',*,*,#323,.T.);
#245=ORIENTED_EDGE('',*,*,#318,.F.);
#246=CARTESIAN_POINT('',(5.50000239999996,38.5681794163296,51.9999999999998));
#247=DIRECTION('',(-1.14423774522198E-17,-7.63278329429793E-16,1.0));
#248=DIRECTION('',(7.63278329429795E-16,-1.0,-7.63278329429793E-16));
#249=ORIENTED_EDGE('',*,*,#328,.F.);
#250=ORIENTED_EDGE('',*,*,#332,.F.);
#251=ORIENTED_EDGE('',*,*,#341,.F.);
#252=ORIENTED_EDGE('',*,*,#333,.F.);
#253=ORIENTED_EDGE('',*,*,#325,.T.);
#254=ORIENTED_EDGE('',*,*,#335,.T.);
#255=CARTESIAN_POINT('',(5.50000239999998,12.0,38.9999999999998));
#256=DIRECTION('',(7.63278329429795E-16,-1.0,-7.63278329429793E-16));
#257=DIRECTION('',(-1.14423774522198E-17,-7.63278329429793E-16,1.0));
#258=ORIENTED_EDGE('',*,*,#342,.T.);
#259=ORIENTED_EDGE('',*,*,#340,.T.);
#260=ORIENTED_EDGE('',*,*,#343,.F.);
#261=ORIENTED_EDGE('',*,*,#344,.F.);
#262=CARTESIAN_POINT('',(2.49999999999999,-2.1316282072803E-14,19.4999999999998));
#263=DIRECTION('',(5.31628299983187E-16,-0.707106781186548,0.707106781186547));
#264=DIRECTION('',(1.0,7.63278329429795E-16,1.14423774522204E-17));
#265=ORIENTED_EDGE('',*,*,#345,.F.);
#266=ORIENTED_EDGE('',*,*,#346,.F.);
#267=ORIENTED_EDGE('',*,*,#347,.T.);
#268=ORIENTED_EDGE('',*,*,#322,.T.);
#269=CARTESIAN_POINT('',(5.50000239999995,56.0,0.999999999999854));
#270=DIRECTION('',(-7.63278329429795E-16,1.0,-1.53667665977801E-14));
#271=DIRECTION('',(-1.14423774522321E-17,1.53667665977801E-14,1.0));
#272=ORIENTED_EDGE('',*,*,#348,.F.);
#273=ORIENTED_EDGE('',*,*,#331,.F.);
#274=ORIENTED_EDGE('',*,*,#316,.F.);
#275=ORIENTED_EDGE('',*,*,#320,.F.);
#276=ORIENTED_EDGE('',*,*,#347,.F.);
#277=ORIENTED_EDGE('',*,*,#349,.T.);
#278=ORIENTED_EDGE('',*,*,#337,.T.);
#279=ORIENTED_EDGE('',*,*,#342,.F.);
#280=CARTESIAN_POINT('',(2.49999999999999,2.69184485989829,13.4852710208819));
#281=DIRECTION('',(-1.0,-7.63278329429795E-16,-1.14423774522204E-17));
#282=DIRECTION('',(7.63278329429795E-16,-1.0,-7.63278329429793E-16));
#283=ORIENTED_EDGE('',*,*,#348,.T.);
#284=ORIENTED_EDGE('',*,*,#344,.T.);
#285=ORIENTED_EDGE('',*,*,#350,.F.);
#286=ORIENTED_EDGE('',*,*,#341,.T.);
#287=CARTESIAN_POINT('',(5.50000239999998,12.0,24.9999999999998));
#288=DIRECTION('',(-1.14423774522198E-17,-7.63278329429793E-16,1.0));
#289=DIRECTION('',(7.63278329429795E-16,-1.0,-7.63278329429793E-16));
#290=ORIENTED_EDGE('',*,*,#351,.F.);
#291=ORIENTED_EDGE('',*,*,#338,.T.);
#292=ORIENTED_EDGE('',*,*,#349,.F.);
#293=ORIENTED_EDGE('',*,*,#346,.T.);
#294=CARTESIAN_POINT('',(5.50000239999999,1.0,-1.88293824976427E-13));
#295=DIRECTION('',(1.14423774522198E-17,7.63278329429793E-16,-1.0));
#296=DIRECTION('',(1.0,7.63278329429795E-16,1.14423774522204E-17));
#297=ORIENTED_EDGE('',*,*,#350,.T.);
#298=ORIENTED_EDGE('',*,*,#343,.T.);
#299=ORIENTED_EDGE('',*,*,#339,.T.);
#300=ORIENTED_EDGE('',*,*,#351,.T.);
#301=ORIENTED_EDGE('',*,*,#345,.T.);
#302=ORIENTED_EDGE('',*,*,#321,.T.);
#303=ORIENTED_EDGE('',*,*,#314,.T.);
#304=ORIENTED_EDGE('',*,*,#334,.T.);
#305=CARTESIAN_POINT('',(4.99999999999999,2.6918448598983,13.4852710208819));
#306=DIRECTION('',(-1.0,-7.63278329429795E-16,-1.14423774522204E-17));
#307=DIRECTION('',(7.63278329429795E-16,-1.0,-7.63278329429793E-16));
#308=EDGE_CURVE('',#352,#353,#354,.T.);
#309=EDGE_CURVE('',#352,#355,#356,.T.);
#310=EDGE_CURVE('',#357,#355,#358,.T.);
#311=EDGE_CURVE('',#359,#357,#360,.T.);
#312=EDGE_CURVE('',#361,#359,#362,.T.);
#313=EDGE_CURVE('',#361,#353,#363,.T.);
#314=EDGE_CURVE('',#364,#352,#365,.T.);
#315=EDGE_CURVE('',#366,#364,#367,.T.);
#316=EDGE_CURVE('',#366,#355,#368,.T.);
#317=EDGE_CURVE('',#369,#359,#370,.T.);
#318=EDGE_CURVE('',#369,#371,#372,.T.);
#319=EDGE_CURVE('',#371,#361,#373,.T.);
#320=EDGE_CURVE('',#374,#366,#375,.T.);
#321=EDGE_CURVE('',#376,#364,#377,.T.);
#322=EDGE_CURVE('',#374,#376,#378,.T.);
#323=EDGE_CURVE('',#379,#371,#380,.T.);
#324=EDGE_CURVE('',#381,#379,#382,.T.);
#325=EDGE_CURVE('',#383,#381,#384,.T.);
#326=EDGE_CURVE('',#353,#383,#385,.T.);
#327=EDGE_CURVE('',#357,#386,#387,.T.);
#328=EDGE_CURVE('',#386,#388,#389,.T.);
#329=EDGE_CURVE('',#388,#390,#391,.T.);
#330=EDGE_CURVE('',#390,#369,#392,.T.);
#331=EDGE_CURVE('',#355,#393,#394,.T.);
#332=EDGE_CURVE('',#393,#386,#395,.T.);
#333=EDGE_CURVE('',#383,#396,#397,.T.);
#334=EDGE_CURVE('',#352,#396,#398,.T.);
#335=EDGE_CURVE('',#381,#388,#399,.T.);
#336=EDGE_CURVE('',#379,#390,#400,.T.);
#337=EDGE_CURVE('',#401,#402,#403,.T.);
#338=EDGE_CURVE('',#404,#401,#405,.T.);
#339=EDGE_CURVE('',#406,#404,#407,.T.);
#340=EDGE_CURVE('',#402,#406,#408,.T.);
#341=EDGE_CURVE('',#396,#393,#409,.T.);
#342=EDGE_CURVE('',#410,#402,#411,.T.);
#343=EDGE_CURVE('',#412,#406,#413,.T.);
#344=EDGE_CURVE('',#410,#412,#414,.T.);
#345=EDGE_CURVE('',#415,#376,#416,.T.);
#346=EDGE_CURVE('',#417,#415,#418,.T.);
#347=EDGE_CURVE('',#417,#374,#419,.T.);
#348=EDGE_CURVE('',#393,#410,#420,.T.);
#349=EDGE_CURVE('',#417,#401,#421,.T.);
#350=EDGE_CURVE('',#396,#412,#422,.T.);
#351=EDGE_CURVE('',#404,#415,#423,.T.);
#352=VERTEX_POINT('',#424);
#353=VERTEX_POINT('',#425);
#354=LINE('',#426,#427);
#355=VERTEX_POINT('',#428);
#356=LINE('',#429,#430);
#357=VERTEX_POINT('',#431);
#358=LINE('',#432,#433);
#359=VERTEX_POINT('',#434);
#360=LINE('',#435,#436);
#361=VERTEX_POINT('',#437);
#362=LINE('',#438,#439);
#363=LINE('',#440,#441);
#364=VERTEX_POINT('',#442);
#365=LINE('',#443,#444);
#366=VERTEX_POINT('',#445);
#367=LINE('',#446,#447);
#368=LINE('',#448,#449);
#369=VERTEX_POINT('',#450);
#370=LINE('',#451,#452);
#371=VERTEX_POINT('',#453);
#372=LINE('',#454,#455);
#373=LINE('',#456,#457);
#374=VERTEX_POINT('',#458);
#375=LINE('',#459,#460);
#376=VERTEX_POINT('',#461);
#377=LINE('',#462,#463);
#378=LINE('',#464,#465);
#379=VERTEX_POINT('',#466);
#380=LINE('',#467,#468);
#381=VERTEX_POINT('',#469);
#382=LINE('',#470,#471);
#383=VERTEX_POINT('',#472);
#384=LINE('',#473,#474);
#385=LINE('',#475,#476);
#386=VERTEX_POINT('',#477);
#387=LINE('',#478,#479);
#388=VERTEX_POINT('',#480);
#389=LINE('',#481,#482);
#390=VERTEX_POINT('',#483);
#391=LINE('',#484,#485);
#392=LINE('',#486,#487);
#393=VERTEX_POINT('',#488);
#394=LINE('',#489,#490);
#395=LINE('',#491,#492);
#396=VERTEX_POINT('',#493);
#397=LINE('',#494,#495);
#398=LINE('',#496,#497);
#399=LINE('',#498,#499);
#400=LINE('',#500,#501);
#401=VERTEX_POINT('',#502);
#402=VERTEX_POINT('',#503);
#403=LINE('',#504,#505);
#404=VERTEX_POINT('',#506);
#405=LINE('',#507,#508);
#406=VERTEX_POINT('',#509);
#407=LINE('',#510,#511);
#408=LINE('',#512,#513);
#409=LINE('',#514,#515);
#410=VERTEX_POINT('',#516);
#411=LINE('',#517,#518);
#412=VERTEX_POINT('',#519);
#413=LINE('',#520,#521);
#414=LINE('',#522,#523);
#415=VERTEX_POINT('',#524);
#416=LINE('',#525,#526);
#417=VERTEX_POINT('',#527);
#418=LINE('',#528,#529);
#419=LINE('',#530,#531);
#420=LINE('',#532,#533);
#421=LINE('',#534,#535);
#422=LINE('',#536,#537);
#423=LINE('',#538,#539);
#424=CARTESIAN_POINT('',(4.99999999999996,44.0,24.9999999999998));
#425=CARTESIAN_POINT('',(2.49999999999996,44.0,27.9793839814853));
#426=CARTESIAN_POINT('',(31.5413666017537,44.0000000000001,-6.63076900000015));
#427=VECTOR('',#540,1.0);
#428=CARTESIAN_POINT('',(2.49999999999996,44.0,24.9999999999998));
#429=CARTESIAN_POINT('',(5.50000239999996,44.0,24.9999999999998));
#430=VECTOR('',#541,1.0);
#431=CARTESIAN_POINT('',(-4.72690350780023E-14,44.0,27.9793839814853));
#432=CARTESIAN_POINT('',(29.0413666017537,44.0000000000001,-6.63076900000015));
#433=VECTOR('',#542,1.0);
#434=CARTESIAN_POINT('',(-4.73951371262421E-14,44.0,38.9999999999998));
#435=CARTESIAN_POINT('',(-4.68730126439091E-14,44.0,-6.63076900000015));
#436=VECTOR('',#543,1.0);
#437=CARTESIAN_POINT('',(2.49999999999996,44.0000000000002,38.9999999999999));
#438=CARTESIAN_POINT('',(5.50000239999996,44.0,38.9999999999998));
#439=VECTOR('',#544,1.0);
#440=CARTESIAN_POINT('',(2.49999999999996,44.0,-6.63076900000015));
#441=VECTOR('',#545,1.0);
#442=CARTESIAN_POINT('',(4.99999999999995,50.5000000000001,24.9999999999998));
#443=CARTESIAN_POINT('',(4.99999999999995,50.661538,24.9999999999998));
#444=VECTOR('',#546,1.0);
#445=CARTESIAN_POINT('',(2.49999999999995,50.5000000000001,24.9999999999998));
#446=CARTESIAN_POINT('',(2.49999999999995,50.5000000000001,24.9999999999998));
#447=VECTOR('',#547,1.0);
#448=CARTESIAN_POINT('',(2.49999999999996,47.345203,24.9999999999998));
#449=VECTOR('',#548,1.0);
#450=CARTESIAN_POINT('',(-4.39323503322738E-14,39.2683869545397,51.9999999999998));
#451=CARTESIAN_POINT('',(-5.95497236102289E-14,60.6082416826768,-6.63076900000014));
#452=VECTOR('',#549,1.0);
#453=CARTESIAN_POINT('',(2.49999999999996,39.2683869545397,51.9999999999998));
#454=CARTESIAN_POINT('',(-4.30441719125736E-14,39.2683869545397,51.9999999999998));
#455=VECTOR('',#550,1.0);
#456=CARTESIAN_POINT('',(2.49999999999995,60.6082416826768,-6.63076900000014));
#457=VECTOR('',#551,1.0);
#458=CARTESIAN_POINT('',(2.49999999999995,56.0000000000003,19.4999999999996));
#459=CARTESIAN_POINT('',(2.49999999999995,50.5000000000001,24.9999999999998));
#460=VECTOR('',#552,1.0);
#461=CARTESIAN_POINT('',(4.99999999999995,56.0000000000003,19.4999999999996));
#462=CARTESIAN_POINT('',(4.99999999999995,50.5000000000001,24.9999999999998));
#463=VECTOR('',#553,1.0);
#464=CARTESIAN_POINT('',(2.49999999999995,56.0000000000002,19.4999999999998));
#465=VECTOR('',#554,1.0);
#466=CARTESIAN_POINT('',(2.49999999999998,16.7316130454606,51.9999999999998));
#467=CARTESIAN_POINT('',(2.49999999999995,50.661538,51.9999999999998));
#468=VECTOR('',#555,1.0);
#469=CARTESIAN_POINT('',(2.49999999999998,12.0000000000001,38.9999999999998));
#470=CARTESIAN_POINT('',(2.5,-4.6082416826764,-6.63076900000019));
#471=VECTOR('',#556,1.0);
#472=CARTESIAN_POINT('',(2.49999999999998,12.0,27.9793839814853));
#473=CARTESIAN_POINT('',(2.49999999999998,12.0,-6.63076900000018));
#474=VECTOR('',#557,1.0);
#475=CARTESIAN_POINT('',(2.49999999999995,56.0,27.9793839814853));
#476=VECTOR('',#558,1.0);
#477=CARTESIAN_POINT('',(-2.28441285362488E-14,12.0,27.9793839814853));
#478=CARTESIAN_POINT('',(-5.64283750311598E-14,56.0,27.9793839814853));
#479=VECTOR('',#559,1.0);
#480=CARTESIAN_POINT('',(-2.29702305844886E-14,12.0,38.9999999999998));
#481=CARTESIAN_POINT('',(-2.24481061021556E-14,12.0,-6.63076900000018));
#482=VECTOR('',#560,1.0);
#483=CARTESIAN_POINT('',(-2.67305191922149E-14,16.7316130454606,51.9999999999998));
#484=CARTESIAN_POINT('',(-9.77139513583605E-15,-4.6082416826764,-6.63076900000019));
#485=VECTOR('',#561,1.0);
#486=CARTESIAN_POINT('',(-5.26284956291941E-14,50.661538,51.9999999999998));
#487=VECTOR('',#562,1.0);
#488=CARTESIAN_POINT('',(2.49999999999998,12.0,24.9999999999998));
#489=CARTESIAN_POINT('',(2.49999999999995,56.0,24.9999999999998));
#490=VECTOR('',#563,1.0);
#491=CARTESIAN_POINT('',(29.0413666017537,12.0,-6.63076900000018));
#492=VECTOR('',#564,1.0);
#493=CARTESIAN_POINT('',(4.99999999999998,12.0,24.9999999999998));
#494=CARTESIAN_POINT('',(31.5413666017537,12.0,-6.63076900000018));
#495=VECTOR('',#565,1.0);
#496=CARTESIAN_POINT('',(4.99999999999995,56.0,24.9999999999998));
#497=VECTOR('',#566,1.0);
#498=CARTESIAN_POINT('',(5.50000239999998,12.0,38.9999999999998));
#499=VECTOR('',#567,1.0);
#500=CARTESIAN_POINT('',(-2.58423407725148E-14,16.7316130454606,51.9999999999998));
#501=VECTOR('',#568,1.0);
#502=CARTESIAN_POINT('',(2.49999999999999,-7.105427357601E-15,-1.89182003396127E-13));
#503=CARTESIAN_POINT('',(2.49999999999999,-2.1316282072803E-14,19.4999999999998));
#504=CARTESIAN_POINT('',(2.49999999999999,-1.4210854715202E-14,9.4202059999998));
#505=VECTOR('',#569,1.0);
#506=CARTESIAN_POINT('',(4.99999999999999,0.0,-1.89182003396127E-13));
#507=CARTESIAN_POINT('',(-1.24764594909944E-14,-7.105427357601E-15,-1.89182003396127E-13));
#508=VECTOR('',#570,1.0);
#509=CARTESIAN_POINT('',(4.99999999999999,-1.4210854715202E-14,19.4999999999998));
#510=CARTESIAN_POINT('',(4.99999999999999,7.105427357601E-15,-6.63076900000019));
#511=VECTOR('',#571,1.0);
#512=CARTESIAN_POINT('',(2.49999999999999,-2.1316282072803E-14,19.4999999999998));
#513=VECTOR('',#572,1.0);
#514=CARTESIAN_POINT('',(5.50000239999998,12.0,24.9999999999998));
#515=VECTOR('',#573,1.0);
#516=CARTESIAN_POINT('',(2.49999999999999,5.50000000000008,24.9999999999998));
#517=CARTESIAN_POINT('',(2.49999999999999,5.49999999999998,24.9999999999998));
#518=VECTOR('',#574,1.0);
#519=CARTESIAN_POINT('',(4.99999999999999,5.49999999999999,24.9999999999998));
#520=CARTESIAN_POINT('',(4.99999999999999,5.49999999999999,24.9999999999998));
#521=VECTOR('',#575,1.0);
#522=CARTESIAN_POINT('',(2.49999999999999,5.49999999999998,24.9999999999998));
#523=VECTOR('',#576,1.0);
#524=CARTESIAN_POINT('',(4.99999999999995,56.0,-1.45661260830821E-13));
#525=CARTESIAN_POINT('',(4.99999999999995,56.0000000000002,8.16289999999984));
#526=VECTOR('',#577,1.0);
#527=CARTESIAN_POINT('',(2.49999999999995,56.0,-1.45661260830821E-13));
#528=CARTESIAN_POINT('',(-5.52200459390629E-14,56.0,-1.45661260830821E-13));
#529=VECTOR('',#578,1.0);
#530=CARTESIAN_POINT('',(2.49999999999995,56.0000000000001,8.16289999999984));
#531=VECTOR('',#579,1.0);
#532=CARTESIAN_POINT('',(2.49999999999996,47.345203,24.9999999999998));
#533=VECTOR('',#580,1.0);
#534=CARTESIAN_POINT('',(2.49999999999995,50.661538,-1.50102152929321E-13));
#535=VECTOR('',#581,1.0);
#536=CARTESIAN_POINT('',(4.99999999999995,47.345203,24.9999999999998));
#537=VECTOR('',#582,1.0);
#538=CARTESIAN_POINT('',(4.99999999999995,50.661538,-1.50102152929321E-13));
#539=VECTOR('',#583,1.0);
#540=DIRECTION('',(-0.642787609686539,-1.07533097571254E-15,0.766044443118978));
#541=DIRECTION('',(-1.0,-7.63278329429795E-16,-1.14423774522204E-17));
#542=DIRECTION('',(0.642787609686539,1.07533097571254E-15,-0.766044443118978));
#543=DIRECTION('',(1.14423774522198E-17,7.63278329429793E-16,-1.0));
#544=DIRECTION('',(-1.0,-7.63278329429795E-16,-1.14423774522204E-17));
#545=DIRECTION('',(1.14423774522198E-17,7.63278329429793E-16,-1.0));
#546=DIRECTION('',(7.63278329429795E-16,-1.0,-7.63278329429793E-16));
#547=DIRECTION('',(1.0,7.63278329429795E-16,1.14423774522204E-17));
#548=DIRECTION('',(7.63278329429795E-16,-1.0,-7.63278329429793E-16));
#549=DIRECTION('',(-2.50304245972852E-16,0.342020143325663,-0.939692620785911));
#550=DIRECTION('',(1.0,7.63278329429795E-16,1.14423774522204E-17));
#551=DIRECTION('',(-2.50304245972852E-16,0.342020143325663,-0.939692620785911));
#552=DIRECTION('',(5.31628299983187E-16,-0.707106781186549,0.707106781186546));
#553=DIRECTION('',(5.31628299983187E-16,-0.707106781186549,0.707106781186546));
#554=DIRECTION('',(1.0,7.63278329429795E-16,1.14423774522204E-17));
#555=DIRECTION('',(-7.63278329429795E-16,1.0,7.63278329429793E-16));
#556=DIRECTION('',(-2.71808881285048E-16,0.342020143325661,0.939692620785911));
#557=DIRECTION('',(-1.14423774522198E-17,-7.63278329429793E-16,1.0));
#558=DIRECTION('',(7.63278329429795E-16,-1.0,-7.63278329429793E-16));
#559=DIRECTION('',(7.63278329429795E-16,-1.0,-7.63278329429793E-16));
#560=DIRECTION('',(-1.14423774522198E-17,-7.63278329429793E-16,1.0));
#561=DIRECTION('',(-2.71808881285048E-16,0.342020143325661,0.939692620785911));
#562=DIRECTION('',(-7.63278329429795E-16,1.0,7.63278329429793E-16));
#563=DIRECTION('',(7.63278329429795E-16,-1.0,-7.63278329429793E-16));
#564=DIRECTION('',(-0.642787609686539,-1.07533097571254E-15,0.766044443118978));
#565=DIRECTION('',(0.642787609686539,1.07533097571254E-15,-0.766044443118978));
#566=DIRECTION('',(7.63278329429795E-16,-1.0,-7.63278329429793E-16));
#567=DIRECTION('',(-1.0,-7.63278329429795E-16,-1.14423774522204E-17));
#568=DIRECTION('',(-1.0,-7.63278329429795E-16,-1.14423774522204E-17));
#569=DIRECTION('',(-1.14423774522198E-17,-7.63278329429793E-16,1.0));
#570=DIRECTION('',(-1.0,-7.63278329429795E-16,-1.14423774522204E-17));
#571=DIRECTION('',(1.14423774522198E-17,7.63278329429793E-16,-1.0));
#572=DIRECTION('',(1.0,7.63278329429795E-16,1.14423774522204E-17));
#573=DIRECTION('',(-1.0,-7.63278329429795E-16,-1.14423774522204E-17));
#574=DIRECTION('',(5.47810265361909E-16,-0.707106781186547,-0.707106781186548));
#575=DIRECTION('',(5.47810265361909E-16,-0.707106781186547,-0.707106781186548));
#576=DIRECTION('',(1.0,7.63278329429795E-16,1.14423774522204E-17));
#577=DIRECTION('',(-1.14423774522198E-17,-7.63278329429793E-16,1.0));
#578=DIRECTION('',(1.0,7.63278329429795E-16,1.14423774522204E-17));
#579=DIRECTION('',(-1.14423774522198E-17,-7.63278329429793E-16,1.0));
#580=DIRECTION('',(7.63278329429795E-16,-1.0,-7.63278329429793E-16));
#581=DIRECTION('',(7.63278329429795E-16,-1.0,-7.63278329429793E-16));
#582=DIRECTION('',(7.63278329429795E-16,-1.0,-7.63278329429793E-16));
#583=DIRECTION('',(-7.63278329429795E-16,1.0,7.63278329429793E-16));
ENDSEC;
END-ISO-10303-21;
